ISO-10303-21;
HEADER;
FILE_DESCRIPTION((''),'2;1');
FILE_NAME('ILCP27642400','2007-11-13T',('KR'),(''),
'PRO/ENGINEER BY PARAMETRIC TECHNOLOGY CORPORATION, 2005180',
'PRO/ENGINEER BY PARAMETRIC TECHNOLOGY CORPORATION, 2005180','');
FILE_SCHEMA(('AUTOMOTIVE_DESIGN_CC2 { 1 2 10303 214 -1 1 5 2 }'));
ENDSEC;
DATA;
#1=COLOUR_RGB('',0.E0,0.E0,4.7E-1);
#2=COLOUR_RGB('',0.E0,0.E0,6.E-1);
#3=COLOUR_RGB('',0.E0,0.E0,8.E-1);
#4=DRAUGHTING_PRE_DEFINED_COLOUR('blue');
#5=COLOUR_RGB('',0.E0,2.E-1,1.E0);
#6=COLOUR_RGB('',0.E0,3.3E-1,0.E0);
#7=COLOUR_RGB('',0.E0,3.3E-1,3.3E-1);
#8=COLOUR_RGB('',0.E0,4.E-1,0.E0);
#9=COLOUR_RGB('',0.E0,4.E-1,4.E-1);
#10=COLOUR_RGB('',0.E0,4.E-1,1.E0);
#11=COLOUR_RGB('',0.E0,5.3E-1,5.3E-1);
#12=COLOUR_RGB('',0.E0,6.E-1,0.E0);
#13=COLOUR_RGB('',0.E0,6.E-1,6.E-1);
#14=COLOUR_RGB('',0.E0,6.E-1,1.E0);
#15=COLOUR_RGB('',0.E0,8.E-1,0.E0);
#16=COLOUR_RGB('',0.E0,8.E-1,8.E-1);
#17=COLOUR_RGB('',0.E0,8.E-1,1.E0);
#18=COLOUR_RGB('',0.E0,9.3E-1,0.E0);
#19=COLOUR_RGB('',0.E0,9.3E-1,9.3E-1);
#20=DRAUGHTING_PRE_DEFINED_COLOUR('green');
#21=COLOUR_RGB('',0.E0,1.E0,2.E-1);
#22=COLOUR_RGB('',0.E0,1.E0,4.E-1);
#23=COLOUR_RGB('',0.E0,1.E0,6.E-1);
#24=COLOUR_RGB('',0.E0,1.E0,8.E-1);
#25=DRAUGHTING_PRE_DEFINED_COLOUR('cyan');
#26=COLOUR_RGB('',7.E-2,7.E-2,1.E0);
#27=COLOUR_RGB('',2.E-1,1.E0,0.E0);
#28=COLOUR_RGB('',2.E-1,1.E0,2.E-1);
#29=COLOUR_RGB('',2.E-1,1.E0,1.E0);
#30=COLOUR_RGB('',2.7E-1,0.E0,4.E-1);
#31=COLOUR_RGB('',2.7E-1,2.7E-1,0.E0);
#32=COLOUR_RGB('',2.7E-1,2.7E-1,1.E0);
#33=COLOUR_RGB('',3.3E-1,0.E0,0.E0);
#34=COLOUR_RGB('',3.3E-1,0.E0,3.3E-1);
#35=COLOUR_RGB('',3.3E-1,0.E0,5.3E-1);
#36=COLOUR_RGB('',4.E-1,0.E0,4.E-1);
#37=COLOUR_RGB('',4.E-1,0.E0,6.7E-1);
#38=COLOUR_RGB('',4.E-1,1.3E-1,0.E0);
#39=COLOUR_RGB('',4.E-1,4.E-1,0.E0);
#40=COLOUR_RGB('',4.E-1,4.E-1,1.E0);
#41=COLOUR_RGB('',4.E-1,1.E0,0.E0);
#42=COLOUR_RGB('',4.E-1,1.E0,4.E-1);
#43=COLOUR_RGB('',4.E-1,1.E0,1.E0);
#44=COLOUR_RGB('',4.7E-1,0.E0,0.E0);
#45=COLOUR_RGB('',4.7E-1,0.E0,8.E-1);
#46=COLOUR_RGB('',4.7E-1,0.E0,8.7E-1);
#47=COLOUR_RGB('',4.7E-1,2.E-1,7.E-2);
#48=COLOUR_RGB('',4.7E-1,4.7E-1,4.7E-1);
#49=COLOUR_RGB('',5.3E-1,0.E0,9.3E-1);
#50=COLOUR_RGB('',5.3E-1,2.7E-1,1.3E-1);
#51=COLOUR_RGB('',5.3E-1,5.3E-1,1.E0);
#52=COLOUR_RGB('',6.E-1,0.E0,6.E-1);
#53=COLOUR_RGB('',6.E-1,2.E-1,1.E0);
#54=COLOUR_RGB('',6.E-1,3.3E-1,2.E-1);
#55=COLOUR_RGB('',6.E-1,6.E-1,0.E0);
#56=COLOUR_RGB('',6.E-1,6.E-1,1.E0);
#57=COLOUR_RGB('',6.E-1,1.E0,6.E-1);
#58=COLOUR_RGB('',6.E-1,1.E0,1.E0);
#59=COLOUR_RGB('',6.7E-1,0.E0,0.E0);
#60=COLOUR_RGB('',6.7E-1,0.E0,5.3E-1);
#61=COLOUR_RGB('',6.7E-1,4.E-1,2.7E-1);
#62=COLOUR_RGB('',6.7E-1,4.E-1,1.E0);
#63=COLOUR_RGB('',6.7E-1,6.7E-1,1.E0);
#64=COLOUR_RGB('',6.7E-1,1.E0,0.E0);
#65=COLOUR_RGB('',7.3E-1,2.7E-1,1.E0);
#66=COLOUR_RGB('',7.3E-1,4.E-1,0.E0);
#67=COLOUR_RGB('',7.3E-1,4.7E-1,3.3E-1);
#68=COLOUR_RGB('',7.3E-1,7.3E-1,7.3E-1);
#69=COLOUR_RGB('',8.E-1,0.E0,8.E-1);
#70=COLOUR_RGB('',8.E-1,5.3E-1,4.E-1);
#71=COLOUR_RGB('',8.E-1,6.E-1,1.E0);
#72=COLOUR_RGB('',8.E-1,8.E-1,0.E0);
#73=COLOUR_RGB('',8.E-1,8.E-1,1.E0);
#74=COLOUR_RGB('',8.E-1,1.E0,8.E-1);
#75=COLOUR_RGB('',8.E-1,1.E0,1.E0);
#76=COLOUR_RGB('',8.7E-1,0.E0,0.E0);
#77=COLOUR_RGB('',8.7E-1,6.E-1,4.7E-1);
#78=COLOUR_RGB('',9.3E-1,0.E0,9.3E-1);
#79=COLOUR_RGB('',9.3E-1,6.7E-1,5.3E-1);
#80=COLOUR_RGB('',9.3E-1,8.E-1,1.E0);
#81=COLOUR_RGB('',9.3E-1,9.3E-1,0.E0);
#82=COLOUR_RGB('',9.3E-1,1.E0,9.3E-1);
#83=COLOUR_RGB('',9.3E-1,1.E0,1.E0);
#84=DRAUGHTING_PRE_DEFINED_COLOUR('red');
#85=COLOUR_RGB('',1.E0,0.E0,2.7E-1);
#86=COLOUR_RGB('',1.E0,0.E0,4.7E-1);
#87=DRAUGHTING_PRE_DEFINED_COLOUR('magenta');
#88=COLOUR_RGB('',1.E0,7.E-2,7.E-2);
#89=COLOUR_RGB('',1.E0,2.E-1,1.E0);
#90=COLOUR_RGB('',1.E0,2.7E-1,0.E0);
#91=COLOUR_RGB('',1.E0,2.7E-1,2.7E-1);
#92=COLOUR_RGB('',1.E0,4.E-1,1.E0);
#93=COLOUR_RGB('',1.E0,4.7E-1,0.E0);
#94=COLOUR_RGB('',1.E0,4.7E-1,4.7E-1);
#95=COLOUR_RGB('',1.E0,4.7E-1,5.3E-1);
#96=COLOUR_RGB('',1.E0,6.E-1,1.E0);
#97=COLOUR_RGB('',1.E0,6.7E-1,0.E0);
#98=COLOUR_RGB('',1.E0,6.7E-1,6.7E-1);
#99=COLOUR_RGB('',1.E0,7.3E-1,5.3E-1);
#100=COLOUR_RGB('',1.E0,7.3E-1,6.E-1);
#101=COLOUR_RGB('',1.E0,8.E-1,8.E-1);
#102=COLOUR_RGB('',1.E0,8.E-1,1.E0);
#103=COLOUR_RGB('',1.E0,8.7E-1,0.E0);
#104=COLOUR_RGB('',1.E0,9.3E-1,9.3E-1);
#105=COLOUR_RGB('',1.E0,9.3E-1,1.E0);
#106=DRAUGHTING_PRE_DEFINED_COLOUR('yellow');
#107=COLOUR_RGB('',1.E0,1.E0,1.3E-1);
#108=COLOUR_RGB('',1.E0,1.E0,3.3E-1);
#109=COLOUR_RGB('',1.E0,1.E0,5.3E-1);
#110=COLOUR_RGB('',1.E0,1.E0,7.3E-1);
#111=COLOUR_RGB('',1.E0,1.E0,9.3E-1);
#112=DIRECTION('',(-1.E0,0.E0,0.E0));
#113=VECTOR('',#112,3.25E-1);
#114=CARTESIAN_POINT('',(0.E0,1.8E-1,0.E0));
#115=LINE('',#114,#113);
#116=CARTESIAN_POINT('',(0.E0,0.E0,0.E0));
#117=DIRECTION('',(1.E0,0.E0,0.E0));
#118=DIRECTION('',(0.E0,1.E0,0.E0));
#119=AXIS2_PLACEMENT_3D('',#116,#117,#118);
#121=DIRECTION('',(-1.E0,0.E0,0.E0));
#122=VECTOR('',#121,3.25E-1);
#123=CARTESIAN_POINT('',(0.E0,-1.8E-1,0.E0));
#124=LINE('',#123,#122);
#125=CARTESIAN_POINT('',(0.E0,0.E0,0.E0));
#126=DIRECTION('',(-1.E0,0.E0,0.E0));
#127=DIRECTION('',(0.E0,1.E0,0.E0));
#128=AXIS2_PLACEMENT_3D('',#125,#126,#127);
#130=CARTESIAN_POINT('',(-3.25E-1,0.E0,0.E0));
#131=DIRECTION('',(1.E0,0.E0,0.E0));
#132=DIRECTION('',(0.E0,1.E0,0.E0));
#133=AXIS2_PLACEMENT_3D('',#130,#131,#132);
#135=CARTESIAN_POINT('',(-3.25E-1,0.E0,0.E0));
#136=DIRECTION('',(-1.E0,0.E0,0.E0));
#137=DIRECTION('',(0.E0,1.E0,0.E0));
#138=AXIS2_PLACEMENT_3D('',#135,#136,#137);
#140=CARTESIAN_POINT('',(-3.25E-1,0.E0,0.E0));
#141=DIRECTION('',(-1.E0,0.E0,0.E0));
#142=DIRECTION('',(0.E0,1.E0,0.E0));
#143=AXIS2_PLACEMENT_3D('',#140,#141,#142);
#145=DIRECTION('',(-1.E0,0.E0,0.E0));
#146=VECTOR('',#145,3.95E-1);
#147=CARTESIAN_POINT('',(-3.25E-1,1.65E-1,0.E0));
#148=LINE('',#147,#146);
#149=CARTESIAN_POINT('',(-3.25E-1,0.E0,0.E0));
#150=DIRECTION('',(1.E0,0.E0,0.E0));
#151=DIRECTION('',(0.E0,1.E0,0.E0));
#152=AXIS2_PLACEMENT_3D('',#149,#150,#151);
#154=DIRECTION('',(-1.E0,0.E0,0.E0));
#155=VECTOR('',#154,3.95E-1);
#156=CARTESIAN_POINT('',(-3.25E-1,-1.65E-1,0.E0));
#157=LINE('',#156,#155);
#158=DIRECTION('',(-9.916004111862E-1,-1.293391840677E-1,0.E0));
#159=VECTOR('',#158,2.319482700949E-1);
#160=CARTESIAN_POINT('',(-7.2E-1,1.65E-1,0.E0));
#161=LINE('',#160,#159);
#162=CARTESIAN_POINT('',(-7.2E-1,0.E0,0.E0));
#163=DIRECTION('',(1.E0,0.E0,0.E0));
#164=DIRECTION('',(0.E0,1.E0,0.E0));
#165=AXIS2_PLACEMENT_3D('',#162,#163,#164);
#167=DIRECTION('',(-9.916004111862E-1,1.293391840677E-1,0.E0));
#168=VECTOR('',#167,2.319482700949E-1);
#169=CARTESIAN_POINT('',(-7.2E-1,-1.65E-1,0.E0));
#170=LINE('',#169,#168);
#171=CARTESIAN_POINT('',(-7.2E-1,0.E0,0.E0));
#172=DIRECTION('',(-1.E0,0.E0,0.E0));
#173=DIRECTION('',(0.E0,1.E0,0.E0));
#174=AXIS2_PLACEMENT_3D('',#171,#172,#173);
#176=CARTESIAN_POINT('',(-9.5E-1,0.E0,0.E0));
#177=DIRECTION('',(-1.E0,0.E0,0.E0));
#178=DIRECTION('',(0.E0,1.E0,0.E0));
#179=AXIS2_PLACEMENT_3D('',#176,#177,#178);
#181=DIRECTION('',(-1.E0,0.E0,0.E0));
#182=VECTOR('',#181,3.3E-1);
#183=CARTESIAN_POINT('',(-9.5E-1,1.35E-1,0.E0));
#184=LINE('',#183,#182);
#185=CARTESIAN_POINT('',(-9.5E-1,0.E0,0.E0));
#186=DIRECTION('',(1.E0,0.E0,0.E0));
#187=DIRECTION('',(0.E0,1.E0,0.E0));
#188=AXIS2_PLACEMENT_3D('',#185,#186,#187);
#190=DIRECTION('',(-1.E0,0.E0,0.E0));
#191=VECTOR('',#190,3.3E-1);
#192=CARTESIAN_POINT('',(-9.5E-1,-1.35E-1,0.E0));
#193=LINE('',#192,#191);
#194=DIRECTION('',(-7.071067811866E-1,-7.071067811865E-1,0.E0));
#195=VECTOR('',#194,6.717514421272E-2);
#196=CARTESIAN_POINT('',(-1.28E0,1.35E-1,0.E0));
#197=LINE('',#196,#195);
#198=CARTESIAN_POINT('',(-1.28E0,0.E0,0.E0));
#199=DIRECTION('',(1.E0,0.E0,0.E0));
#200=DIRECTION('',(0.E0,1.E0,0.E0));
#201=AXIS2_PLACEMENT_3D('',#198,#199,#200);
#203=DIRECTION('',(-7.071067811866E-1,7.071067811865E-1,0.E0));
#204=VECTOR('',#203,6.717514421272E-2);
#205=CARTESIAN_POINT('',(-1.28E0,-1.35E-1,0.E0));
#206=LINE('',#205,#204);
#207=CARTESIAN_POINT('',(-1.28E0,0.E0,0.E0));
#208=DIRECTION('',(-1.E0,0.E0,0.E0));
#209=DIRECTION('',(0.E0,1.E0,0.E0));
#210=AXIS2_PLACEMENT_3D('',#207,#208,#209);
#212=CARTESIAN_POINT('',(-1.3275E0,0.E0,0.E0));
#213=DIRECTION('',(-1.E0,0.E0,0.E0));
#214=DIRECTION('',(0.E0,1.E0,0.E0));
#215=AXIS2_PLACEMENT_3D('',#212,#213,#214);
#217=DIRECTION('',(-1.E0,0.E0,0.E0));
#218=VECTOR('',#217,2.6725E0);
#219=CARTESIAN_POINT('',(-1.3275E0,8.75E-2,0.E0));
#220=LINE('',#219,#218);
#221=CARTESIAN_POINT('',(-1.3275E0,0.E0,0.E0));
#222=DIRECTION('',(1.E0,0.E0,0.E0));
#223=DIRECTION('',(0.E0,1.E0,0.E0));
#224=AXIS2_PLACEMENT_3D('',#221,#222,#223);
#226=DIRECTION('',(-1.E0,0.E0,0.E0));
#227=VECTOR('',#226,2.6725E0);
#228=CARTESIAN_POINT('',(-1.3275E0,-8.75E-2,0.E0));
#229=LINE('',#228,#227);
#230=CARTESIAN_POINT('',(-4.E0,0.E0,0.E0));
#231=DIRECTION('',(1.E0,0.E0,0.E0));
#232=DIRECTION('',(0.E0,1.E0,0.E0));
#233=AXIS2_PLACEMENT_3D('',#230,#231,#232);
#235=CARTESIAN_POINT('',(-4.E0,0.E0,0.E0));
#236=DIRECTION('',(-1.E0,0.E0,0.E0));
#237=DIRECTION('',(0.E0,1.E0,0.E0));
#238=AXIS2_PLACEMENT_3D('',#235,#236,#237);
#240=CARTESIAN_POINT('',(0.E0,1.8E-1,0.E0));
#241=CARTESIAN_POINT('',(-3.25E-1,1.8E-1,0.E0));
#242=VERTEX_POINT('',#240);
#243=VERTEX_POINT('',#241);
#244=CARTESIAN_POINT('',(-3.25E-1,1.65E-1,0.E0));
#245=CARTESIAN_POINT('',(-7.2E-1,1.65E-1,0.E0));
#246=VERTEX_POINT('',#244);
#247=VERTEX_POINT('',#245);
#248=CARTESIAN_POINT('',(-9.5E-1,1.35E-1,0.E0));
#249=VERTEX_POINT('',#248);
#250=CARTESIAN_POINT('',(-1.28E0,1.35E-1,0.E0));
#251=VERTEX_POINT('',#250);
#252=CARTESIAN_POINT('',(-1.3275E0,8.75E-2,0.E0));
#253=VERTEX_POINT('',#252);
#254=CARTESIAN_POINT('',(-4.E0,8.75E-2,0.E0));
#255=VERTEX_POINT('',#254);
#256=CARTESIAN_POINT('',(0.E0,-1.8E-1,0.E0));
#257=CARTESIAN_POINT('',(-3.25E-1,-1.8E-1,0.E0));
#258=VERTEX_POINT('',#256);
#259=VERTEX_POINT('',#257);
#260=CARTESIAN_POINT('',(-3.25E-1,-1.65E-1,0.E0));
#261=CARTESIAN_POINT('',(-7.2E-1,-1.65E-1,0.E0));
#262=VERTEX_POINT('',#260);
#263=VERTEX_POINT('',#261);
#264=CARTESIAN_POINT('',(-9.5E-1,-1.35E-1,0.E0));
#265=VERTEX_POINT('',#264);
#266=CARTESIAN_POINT('',(-1.28E0,-1.35E-1,0.E0));
#267=VERTEX_POINT('',#266);
#268=CARTESIAN_POINT('',(-1.3275E0,-8.75E-2,0.E0));
#269=VERTEX_POINT('',#268);
#270=CARTESIAN_POINT('',(-4.E0,-8.75E-2,0.E0));
#271=VERTEX_POINT('',#270);
#272=CARTESIAN_POINT('',(0.E0,0.E0,0.E0));
#273=DIRECTION('',(-1.E0,0.E0,0.E0));
#274=DIRECTION('',(0.E0,1.E0,0.E0));
#275=AXIS2_PLACEMENT_3D('',#272,#273,#274);
#276=PLANE('',#275);
#278=ORIENTED_EDGE('',*,*,#277,.F.);
#280=ORIENTED_EDGE('',*,*,#279,.T.);
#281=EDGE_LOOP('',(#278,#280));
#282=FACE_OUTER_BOUND('',#281,.F.);
#283=ADVANCED_FACE('',(#282),#276,.F.);
#284=CARTESIAN_POINT('',(2.E-1,0.E0,0.E0));
#285=DIRECTION('',(-1.E0,0.E0,0.E0));
#286=DIRECTION('',(0.E0,1.E0,0.E0));
#287=AXIS2_PLACEMENT_3D('',#284,#285,#286);
#288=CYLINDRICAL_SURFACE('',#287,1.8E-1);
#290=ORIENTED_EDGE('',*,*,#289,.F.);
#291=ORIENTED_EDGE('',*,*,#277,.T.);
#293=ORIENTED_EDGE('',*,*,#292,.T.);
#295=ORIENTED_EDGE('',*,*,#294,.F.);
#296=EDGE_LOOP('',(#290,#291,#293,#295));
#297=FACE_OUTER_BOUND('',#296,.F.);
#298=ADVANCED_FACE('',(#297),#288,.T.);
#299=FILL_AREA_STYLE_COLOUR('',#68);
#300=FILL_AREA_STYLE('',(#299));
#301=SURFACE_STYLE_FILL_AREA(#300);
#302=SURFACE_SIDE_STYLE('',(#301));
#303=SURFACE_STYLE_USAGE(.POSITIVE.,#302);
#304=PRESENTATION_STYLE_ASSIGNMENT((#303));
#305=STYLED_ITEM('',(#304),#298);
#306=CARTESIAN_POINT('',(2.E-1,0.E0,0.E0));
#307=DIRECTION('',(-1.E0,0.E0,0.E0));
#308=DIRECTION('',(0.E0,1.E0,0.E0));
#309=AXIS2_PLACEMENT_3D('',#306,#307,#308);
#310=CYLINDRICAL_SURFACE('',#309,1.8E-1);
#311=ORIENTED_EDGE('',*,*,#289,.T.);
#313=ORIENTED_EDGE('',*,*,#312,.T.);
#314=ORIENTED_EDGE('',*,*,#292,.F.);
#315=ORIENTED_EDGE('',*,*,#279,.F.);
#316=EDGE_LOOP('',(#311,#313,#314,#315));
#317=FACE_OUTER_BOUND('',#316,.F.);
#318=ADVANCED_FACE('',(#317),#310,.T.);
#319=FILL_AREA_STYLE_COLOUR('',#68);
#320=FILL_AREA_STYLE('',(#319));
#321=SURFACE_STYLE_FILL_AREA(#320);
#322=SURFACE_SIDE_STYLE('',(#321));
#323=SURFACE_STYLE_USAGE(.POSITIVE.,#322);
#324=PRESENTATION_STYLE_ASSIGNMENT((#323));
#325=STYLED_ITEM('',(#324),#318);
#326=CARTESIAN_POINT('',(-3.25E-1,0.E0,0.E0));
#327=DIRECTION('',(-1.E0,0.E0,0.E0));
#328=DIRECTION('',(0.E0,1.E0,0.E0));
#329=AXIS2_PLACEMENT_3D('',#326,#327,#328);
#330=PLANE('',#329);
#331=ORIENTED_EDGE('',*,*,#294,.T.);
#332=ORIENTED_EDGE('',*,*,#312,.F.);
#333=EDGE_LOOP('',(#331,#332));
#334=FACE_OUTER_BOUND('',#333,.F.);
#336=ORIENTED_EDGE('',*,*,#335,.T.);
#338=ORIENTED_EDGE('',*,*,#337,.F.);
#339=EDGE_LOOP('',(#336,#338));
#340=FACE_BOUND('',#339,.F.);
#341=ADVANCED_FACE('',(#334,#340),#330,.T.);
#342=CARTESIAN_POINT('',(2.E-1,0.E0,0.E0));
#343=DIRECTION('',(-1.E0,0.E0,0.E0));
#344=DIRECTION('',(0.E0,1.E0,0.E0));
#345=AXIS2_PLACEMENT_3D('',#342,#343,#344);
#346=CYLINDRICAL_SURFACE('',#345,1.65E-1);
#348=ORIENTED_EDGE('',*,*,#347,.T.);
#350=ORIENTED_EDGE('',*,*,#349,.T.);
#352=ORIENTED_EDGE('',*,*,#351,.F.);
#353=ORIENTED_EDGE('',*,*,#335,.F.);
#354=EDGE_LOOP('',(#348,#350,#352,#353));
#355=FACE_OUTER_BOUND('',#354,.F.);
#356=ADVANCED_FACE('',(#355),#346,.T.);
#357=FILL_AREA_STYLE_COLOUR('',#31);
#358=FILL_AREA_STYLE('',(#357));
#359=SURFACE_STYLE_FILL_AREA(#358);
#360=SURFACE_SIDE_STYLE('',(#359));
#361=SURFACE_STYLE_USAGE(.POSITIVE.,#360);
#362=PRESENTATION_STYLE_ASSIGNMENT((#361));
#363=STYLED_ITEM('',(#362),#356);
#364=CARTESIAN_POINT('',(2.E-1,0.E0,0.E0));
#365=DIRECTION('',(-1.E0,0.E0,0.E0));
#366=DIRECTION('',(0.E0,1.E0,0.E0));
#367=AXIS2_PLACEMENT_3D('',#364,#365,#366);
#368=CYLINDRICAL_SURFACE('',#367,1.65E-1);
#369=ORIENTED_EDGE('',*,*,#347,.F.);
#370=ORIENTED_EDGE('',*,*,#337,.T.);
#371=ORIENTED_EDGE('',*,*,#351,.T.);
#373=ORIENTED_EDGE('',*,*,#372,.F.);
#374=EDGE_LOOP('',(#369,#370,#371,#373));
#375=FACE_OUTER_BOUND('',#374,.F.);
#376=ADVANCED_FACE('',(#375),#368,.T.);
#377=FILL_AREA_STYLE_COLOUR('',#31);
#378=FILL_AREA_STYLE('',(#377));
#379=SURFACE_STYLE_FILL_AREA(#378);
#380=SURFACE_SIDE_STYLE('',(#379));
#381=SURFACE_STYLE_USAGE(.POSITIVE.,#380);
#382=PRESENTATION_STYLE_ASSIGNMENT((#381));
#383=STYLED_ITEM('',(#382),#376);
#384=CARTESIAN_POINT('',(-8.35E-1,0.E0,0.E0));
#385=DIRECTION('',(1.E0,0.E0,0.E0));
#386=DIRECTION('',(0.E0,-1.E0,0.E0));
#387=AXIS2_PLACEMENT_3D('',#384,#385,#386);
#388=CONICAL_SURFACE('',#387,1.5E-1,7.431407971170E0);
#390=ORIENTED_EDGE('',*,*,#389,.F.);
#391=ORIENTED_EDGE('',*,*,#372,.T.);
#393=ORIENTED_EDGE('',*,*,#392,.T.);
#395=ORIENTED_EDGE('',*,*,#394,.F.);
#396=EDGE_LOOP('',(#390,#391,#393,#395));
#397=FACE_OUTER_BOUND('',#396,.F.);
#398=ADVANCED_FACE('',(#397),#388,.T.);
#399=FILL_AREA_STYLE_COLOUR('',#31);
#400=FILL_AREA_STYLE('',(#399));
#401=SURFACE_STYLE_FILL_AREA(#400);
#402=SURFACE_SIDE_STYLE('',(#401));
#403=SURFACE_STYLE_USAGE(.POSITIVE.,#402);
#404=PRESENTATION_STYLE_ASSIGNMENT((#403));
#405=STYLED_ITEM('',(#404),#398);
#406=CARTESIAN_POINT('',(-8.35E-1,0.E0,0.E0));
#407=DIRECTION('',(1.E0,0.E0,0.E0));
#408=DIRECTION('',(0.E0,-1.E0,0.E0));
#409=AXIS2_PLACEMENT_3D('',#406,#407,#408);
#410=CONICAL_SURFACE('',#409,1.5E-1,7.431407971170E0);
#411=ORIENTED_EDGE('',*,*,#389,.T.);
#413=ORIENTED_EDGE('',*,*,#412,.T.);
#414=ORIENTED_EDGE('',*,*,#392,.F.);
#415=ORIENTED_EDGE('',*,*,#349,.F.);
#416=EDGE_LOOP('',(#411,#413,#414,#415));
#417=FACE_OUTER_BOUND('',#416,.F.);
#418=ADVANCED_FACE('',(#417),#410,.T.);
#419=FILL_AREA_STYLE_COLOUR('',#31);
#420=FILL_AREA_STYLE('',(#419));
#421=SURFACE_STYLE_FILL_AREA(#420);
#422=SURFACE_SIDE_STYLE('',(#421));
#423=SURFACE_STYLE_USAGE(.POSITIVE.,#422);
#424=PRESENTATION_STYLE_ASSIGNMENT((#423));
#425=STYLED_ITEM('',(#424),#418);
#426=CARTESIAN_POINT('',(2.E-1,0.E0,0.E0));
#427=DIRECTION('',(-1.E0,0.E0,0.E0));
#428=DIRECTION('',(0.E0,1.E0,0.E0));
#429=AXIS2_PLACEMENT_3D('',#426,#427,#428);
#430=CYLINDRICAL_SURFACE('',#429,1.35E-1);
#432=ORIENTED_EDGE('',*,*,#431,.T.);
#434=ORIENTED_EDGE('',*,*,#433,.T.);
#436=ORIENTED_EDGE('',*,*,#435,.F.);
#437=ORIENTED_EDGE('',*,*,#412,.F.);
#438=EDGE_LOOP('',(#432,#434,#436,#437));
#439=FACE_OUTER_BOUND('',#438,.F.);
#440=ADVANCED_FACE('',(#439),#430,.T.);
#441=FILL_AREA_STYLE_COLOUR('',#31);
#442=FILL_AREA_STYLE('',(#441));
#443=SURFACE_STYLE_FILL_AREA(#442);
#444=SURFACE_SIDE_STYLE('',(#443));
#445=SURFACE_STYLE_USAGE(.POSITIVE.,#444);
#446=PRESENTATION_STYLE_ASSIGNMENT((#445));
#447=STYLED_ITEM('',(#446),#440);
#448=CARTESIAN_POINT('',(2.E-1,0.E0,0.E0));
#449=DIRECTION('',(-1.E0,0.E0,0.E0));
#450=DIRECTION('',(0.E0,1.E0,0.E0));
#451=AXIS2_PLACEMENT_3D('',#448,#449,#450);
#452=CYLINDRICAL_SURFACE('',#451,1.35E-1);
#453=ORIENTED_EDGE('',*,*,#431,.F.);
#454=ORIENTED_EDGE('',*,*,#394,.T.);
#455=ORIENTED_EDGE('',*,*,#435,.T.);
#457=ORIENTED_EDGE('',*,*,#456,.F.);
#458=EDGE_LOOP('',(#453,#454,#455,#457));
#459=FACE_OUTER_BOUND('',#458,.F.);
#460=ADVANCED_FACE('',(#459),#452,.T.);
#461=FILL_AREA_STYLE_COLOUR('',#31);
#462=FILL_AREA_STYLE('',(#461));
#463=SURFACE_STYLE_FILL_AREA(#462);
#464=SURFACE_SIDE_STYLE('',(#463));
#465=SURFACE_STYLE_USAGE(.POSITIVE.,#464);
#466=PRESENTATION_STYLE_ASSIGNMENT((#465));
#467=STYLED_ITEM('',(#466),#460);
#468=CARTESIAN_POINT('',(-1.30375E0,0.E0,0.E0));
#469=DIRECTION('',(1.E0,0.E0,0.E0));
#470=DIRECTION('',(0.E0,-1.E0,0.E0));
#471=AXIS2_PLACEMENT_3D('',#468,#469,#470);
#472=CONICAL_SURFACE('',#471,1.1125E-1,4.5E1);
#474=ORIENTED_EDGE('',*,*,#473,.F.);
#475=ORIENTED_EDGE('',*,*,#456,.T.);
#477=ORIENTED_EDGE('',*,*,#476,.T.);
#479=ORIENTED_EDGE('',*,*,#478,.F.);
#480=EDGE_LOOP('',(#474,#475,#477,#479));
#481=FACE_OUTER_BOUND('',#480,.F.);
#482=ADVANCED_FACE('',(#481),#472,.T.);
#483=FILL_AREA_STYLE_COLOUR('',#31);
#484=FILL_AREA_STYLE('',(#483));
#485=SURFACE_STYLE_FILL_AREA(#484);
#486=SURFACE_SIDE_STYLE('',(#485));
#487=SURFACE_STYLE_USAGE(.POSITIVE.,#486);
#488=PRESENTATION_STYLE_ASSIGNMENT((#487));
#489=STYLED_ITEM('',(#488),#482);
#490=CARTESIAN_POINT('',(-1.30375E0,0.E0,0.E0));
#491=DIRECTION('',(1.E0,0.E0,0.E0));
#492=DIRECTION('',(0.E0,-1.E0,0.E0));
#493=AXIS2_PLACEMENT_3D('',#490,#491,#492);
#494=CONICAL_SURFACE('',#493,1.1125E-1,4.5E1);
#495=ORIENTED_EDGE('',*,*,#473,.T.);
#497=ORIENTED_EDGE('',*,*,#496,.T.);
#498=ORIENTED_EDGE('',*,*,#476,.F.);
#499=ORIENTED_EDGE('',*,*,#433,.F.);
#500=EDGE_LOOP('',(#495,#497,#498,#499));
#501=FACE_OUTER_BOUND('',#500,.F.);
#502=ADVANCED_FACE('',(#501),#494,.T.);
#503=FILL_AREA_STYLE_COLOUR('',#31);
#504=FILL_AREA_STYLE('',(#503));
#505=SURFACE_STYLE_FILL_AREA(#504);
#506=SURFACE_SIDE_STYLE('',(#505));
#507=SURFACE_STYLE_USAGE(.POSITIVE.,#506);
#508=PRESENTATION_STYLE_ASSIGNMENT((#507));
#509=STYLED_ITEM('',(#508),#502);
#510=CARTESIAN_POINT('',(2.E-1,0.E0,0.E0));
#511=DIRECTION('',(-1.E0,0.E0,0.E0));
#512=DIRECTION('',(0.E0,1.E0,0.E0));
#513=AXIS2_PLACEMENT_3D('',#510,#511,#512);
#514=CYLINDRICAL_SURFACE('',#513,8.75E-2);
#516=ORIENTED_EDGE('',*,*,#515,.T.);
#518=ORIENTED_EDGE('',*,*,#517,.T.);
#520=ORIENTED_EDGE('',*,*,#519,.F.);
#521=ORIENTED_EDGE('',*,*,#496,.F.);
#522=EDGE_LOOP('',(#516,#518,#520,#521));
#523=FACE_OUTER_BOUND('',#522,.F.);
#524=ADVANCED_FACE('',(#523),#514,.T.);
#525=CARTESIAN_POINT('',(2.E-1,0.E0,0.E0));
#526=DIRECTION('',(-1.E0,0.E0,0.E0));
#527=DIRECTION('',(0.E0,1.E0,0.E0));
#528=AXIS2_PLACEMENT_3D('',#525,#526,#527);
#529=CYLINDRICAL_SURFACE('',#528,8.75E-2);
#530=ORIENTED_EDGE('',*,*,#515,.F.);
#531=ORIENTED_EDGE('',*,*,#478,.T.);
#532=ORIENTED_EDGE('',*,*,#519,.T.);
#534=ORIENTED_EDGE('',*,*,#533,.F.);
#535=EDGE_LOOP('',(#530,#531,#532,#534));
#536=FACE_OUTER_BOUND('',#535,.F.);
#537=ADVANCED_FACE('',(#536),#529,.T.);
#538=CARTESIAN_POINT('',(-4.E0,0.E0,0.E0));
#539=DIRECTION('',(-1.E0,0.E0,0.E0));
#540=DIRECTION('',(0.E0,1.E0,0.E0));
#541=AXIS2_PLACEMENT_3D('',#538,#539,#540);
#542=PLANE('',#541);
#543=ORIENTED_EDGE('',*,*,#533,.T.);
#544=ORIENTED_EDGE('',*,*,#517,.F.);
#545=EDGE_LOOP('',(#543,#544));
#546=FACE_OUTER_BOUND('',#545,.F.);
#547=ADVANCED_FACE('',(#546),#542,.T.);
#548=CLOSED_SHELL('',(#283,#298,#318,#341,#356,#376,#398,#418,#440,#460,#482,
#502,#524,#537,#547));
#549=MANIFOLD_SOLID_BREP('',#548);
#550=DIMENSIONAL_EXPONENTS(1.E0,0.E0,0.E0,0.E0,0.E0,0.E0,0.E0);
#551=(LENGTH_UNIT()NAMED_UNIT(*)SI_UNIT(.MILLI.,.METRE.));
#552=LENGTH_MEASURE_WITH_UNIT(LENGTH_MEASURE(2.54E1),#551);
#553=(CONVERSION_BASED_UNIT('INCH',#552)LENGTH_UNIT()NAMED_UNIT(#550));
#554=DIMENSIONAL_EXPONENTS(0.E0,0.E0,0.E0,0.E0,0.E0,0.E0,0.E0);
#555=(NAMED_UNIT(*)PLANE_ANGLE_UNIT()SI_UNIT($,.RADIAN.));
#556=PLANE_ANGLE_MEASURE_WITH_UNIT(PLANE_ANGLE_MEASURE(1.745329251994E-2),#555);
#557=(CONVERSION_BASED_UNIT('DEGREE',#556)NAMED_UNIT(#554)PLANE_ANGLE_UNIT());
#558=(NAMED_UNIT(*)SI_UNIT($,.STERADIAN.)SOLID_ANGLE_UNIT());
#559=UNCERTAINTY_MEASURE_WITH_UNIT(LENGTH_MEASURE(4.403504131828E-4),#553,
'distance_accuracy_value',
'Maximum model space distance between geometric entities at asserted connectivities');
#560=(GEOMETRIC_REPRESENTATION_CONTEXT(3)GLOBAL_UNCERTAINTY_ASSIGNED_CONTEXT((
#559))GLOBAL_UNIT_ASSIGNED_CONTEXT((#553,#557,#558))REPRESENTATION_CONTEXT
('ID1','3'));
#562=MECHANICAL_DESIGN_GEOMETRIC_PRESENTATION_REPRESENTATION('',(#305,#325,#363,
#383,#405,#425,#447,#467,#489,#509),#560);
#563=APPLICATION_CONTEXT('automotive_design');
#564=APPLICATION_PROTOCOL_DEFINITION('draft international standard',
'automotive_design',1998,#563);
#565=PRODUCT_DEFINITION_CONTEXT('part definition',#563,'design');
#566=PRODUCT_CONTEXT('',#563,'mechanical');
#567=PRODUCT('ILCP27642400','ILCP27642400','NOT SPECIFIED',(#566));
#568=PRODUCT_DEFINITION_FORMATION_WITH_SPECIFIED_SOURCE('1','LAST_VERSION',#567,
.MADE.);
#572=PRODUCT_TYPE('part','',(#567));
#120=CIRCLE('',#119,1.8E-1);
#129=CIRCLE('',#128,1.8E-1);
#134=CIRCLE('',#133,1.8E-1);
#139=CIRCLE('',#138,1.8E-1);
#144=CIRCLE('',#143,1.65E-1);
#153=CIRCLE('',#152,1.65E-1);
#166=CIRCLE('',#165,1.65E-1);
#175=CIRCLE('',#174,1.65E-1);
#180=CIRCLE('',#179,1.35E-1);
#189=CIRCLE('',#188,1.35E-1);
#202=CIRCLE('',#201,1.35E-1);
#211=CIRCLE('',#210,1.35E-1);
#216=CIRCLE('',#215,8.75E-2);
#225=CIRCLE('',#224,8.75E-2);
#234=CIRCLE('',#233,8.75E-2);
#239=CIRCLE('',#238,8.75E-2);
#277=EDGE_CURVE('',#242,#258,#120,.T.);
#279=EDGE_CURVE('',#242,#258,#129,.T.);
#289=EDGE_CURVE('',#242,#243,#115,.T.);
#292=EDGE_CURVE('',#258,#259,#124,.T.);
#294=EDGE_CURVE('',#243,#259,#134,.T.);
#312=EDGE_CURVE('',#243,#259,#139,.T.);
#335=EDGE_CURVE('',#246,#262,#144,.T.);
#337=EDGE_CURVE('',#246,#262,#153,.T.);
#347=EDGE_CURVE('',#246,#247,#148,.T.);
#349=EDGE_CURVE('',#247,#263,#175,.T.);
#351=EDGE_CURVE('',#262,#263,#157,.T.);
#372=EDGE_CURVE('',#247,#263,#166,.T.);
#389=EDGE_CURVE('',#247,#249,#161,.T.);
#392=EDGE_CURVE('',#263,#265,#170,.T.);
#394=EDGE_CURVE('',#249,#265,#189,.T.);
#412=EDGE_CURVE('',#249,#265,#180,.T.);
#431=EDGE_CURVE('',#249,#251,#184,.T.);
#433=EDGE_CURVE('',#251,#267,#211,.T.);
#435=EDGE_CURVE('',#265,#267,#193,.T.);
#456=EDGE_CURVE('',#251,#267,#202,.T.);
#473=EDGE_CURVE('',#251,#253,#197,.T.);
#476=EDGE_CURVE('',#267,#269,#206,.T.);
#478=EDGE_CURVE('',#253,#269,#225,.T.);
#496=EDGE_CURVE('',#253,#269,#216,.T.);
#515=EDGE_CURVE('',#253,#255,#220,.T.);
#517=EDGE_CURVE('',#255,#271,#239,.T.);
#519=EDGE_CURVE('',#269,#271,#229,.T.);
#533=EDGE_CURVE('',#255,#271,#234,.T.);
#561=ADVANCED_BREP_SHAPE_REPRESENTATION('',(#549),#560);
#569=PRODUCT_DEFINITION('part definition','',#568,#565);
#570=PRODUCT_DEFINITION_SHAPE('','SHAPE FOR ILCP27642400.',#569);
#571=SHAPE_DEFINITION_REPRESENTATION(#570,#561);
ENDSEC;
END-ISO-10303-21;
