ISO-10303-21;
HEADER;
FILE_DESCRIPTION((''),'2;1');
FILE_NAME('ILC30500044','2005-08-24T',('KR'),(''),
'PRO/ENGINEER BY PARAMETRIC TECHNOLOGY CORPORATION, 2004290',
'PRO/ENGINEER BY PARAMETRIC TECHNOLOGY CORPORATION, 2004290','');
FILE_SCHEMA(('AUTOMOTIVE_DESIGN_CC2 { 1 2 10303 214 -1 1 5 2 }'));
ENDSEC;
DATA;
#1=COLOUR_RGB('',0.E0,0.E0,4.7E-1);
#2=COLOUR_RGB('',0.E0,0.E0,6.E-1);
#3=COLOUR_RGB('',0.E0,0.E0,8.E-1);
#4=DRAUGHTING_PRE_DEFINED_COLOUR('blue');
#5=COLOUR_RGB('',0.E0,2.E-1,1.E0);
#6=COLOUR_RGB('',0.E0,3.3E-1,0.E0);
#7=COLOUR_RGB('',0.E0,3.3E-1,3.3E-1);
#8=COLOUR_RGB('',0.E0,4.E-1,0.E0);
#9=COLOUR_RGB('',0.E0,4.E-1,4.E-1);
#10=COLOUR_RGB('',0.E0,4.E-1,1.E0);
#11=COLOUR_RGB('',0.E0,5.3E-1,5.3E-1);
#12=COLOUR_RGB('',0.E0,6.E-1,0.E0);
#13=COLOUR_RGB('',0.E0,6.E-1,6.E-1);
#14=COLOUR_RGB('',0.E0,6.E-1,1.E0);
#15=COLOUR_RGB('',0.E0,8.E-1,0.E0);
#16=COLOUR_RGB('',0.E0,8.E-1,8.E-1);
#17=COLOUR_RGB('',0.E0,8.E-1,1.E0);
#18=COLOUR_RGB('',0.E0,9.3E-1,0.E0);
#19=COLOUR_RGB('',0.E0,9.3E-1,9.3E-1);
#20=DRAUGHTING_PRE_DEFINED_COLOUR('green');
#21=COLOUR_RGB('',0.E0,1.E0,2.E-1);
#22=COLOUR_RGB('',0.E0,1.E0,4.E-1);
#23=COLOUR_RGB('',0.E0,1.E0,6.E-1);
#24=COLOUR_RGB('',0.E0,1.E0,8.E-1);
#25=DRAUGHTING_PRE_DEFINED_COLOUR('cyan');
#26=COLOUR_RGB('',7.E-2,7.E-2,1.E0);
#27=COLOUR_RGB('',2.E-1,1.E0,0.E0);
#28=COLOUR_RGB('',2.E-1,1.E0,2.E-1);
#29=COLOUR_RGB('',2.E-1,1.E0,1.E0);
#30=COLOUR_RGB('',2.7E-1,0.E0,4.E-1);
#31=COLOUR_RGB('',2.7E-1,2.7E-1,0.E0);
#32=COLOUR_RGB('',2.7E-1,2.7E-1,1.E0);
#33=COLOUR_RGB('',3.3E-1,0.E0,0.E0);
#34=COLOUR_RGB('',3.3E-1,0.E0,3.3E-1);
#35=COLOUR_RGB('',3.3E-1,0.E0,5.3E-1);
#36=COLOUR_RGB('',4.E-1,0.E0,4.E-1);
#37=COLOUR_RGB('',4.E-1,0.E0,6.7E-1);
#38=COLOUR_RGB('',4.E-1,1.3E-1,0.E0);
#39=COLOUR_RGB('',4.E-1,4.E-1,0.E0);
#40=COLOUR_RGB('',4.E-1,4.E-1,1.E0);
#41=COLOUR_RGB('',4.E-1,1.E0,0.E0);
#42=COLOUR_RGB('',4.E-1,1.E0,4.E-1);
#43=COLOUR_RGB('',4.E-1,1.E0,1.E0);
#44=COLOUR_RGB('',4.7E-1,0.E0,0.E0);
#45=COLOUR_RGB('',4.7E-1,0.E0,8.E-1);
#46=COLOUR_RGB('',4.7E-1,0.E0,8.7E-1);
#47=COLOUR_RGB('',4.7E-1,2.E-1,7.E-2);
#48=COLOUR_RGB('',4.7E-1,4.7E-1,4.7E-1);
#49=COLOUR_RGB('',5.3E-1,0.E0,9.3E-1);
#50=COLOUR_RGB('',5.3E-1,2.7E-1,1.3E-1);
#51=COLOUR_RGB('',5.3E-1,5.3E-1,1.E0);
#52=COLOUR_RGB('',6.E-1,0.E0,6.E-1);
#53=COLOUR_RGB('',6.E-1,2.E-1,1.E0);
#54=COLOUR_RGB('',6.E-1,3.3E-1,2.E-1);
#55=COLOUR_RGB('',6.E-1,6.E-1,0.E0);
#56=COLOUR_RGB('',6.E-1,6.E-1,1.E0);
#57=COLOUR_RGB('',6.E-1,1.E0,6.E-1);
#58=COLOUR_RGB('',6.E-1,1.E0,1.E0);
#59=COLOUR_RGB('',6.7E-1,0.E0,0.E0);
#60=COLOUR_RGB('',6.7E-1,0.E0,5.3E-1);
#61=COLOUR_RGB('',6.7E-1,4.E-1,2.7E-1);
#62=COLOUR_RGB('',6.7E-1,4.E-1,1.E0);
#63=COLOUR_RGB('',6.7E-1,6.7E-1,1.E0);
#64=COLOUR_RGB('',6.7E-1,1.E0,0.E0);
#65=COLOUR_RGB('',7.3E-1,2.7E-1,1.E0);
#66=COLOUR_RGB('',7.3E-1,4.E-1,0.E0);
#67=COLOUR_RGB('',7.3E-1,4.7E-1,3.3E-1);
#68=COLOUR_RGB('',7.3E-1,7.3E-1,7.3E-1);
#69=COLOUR_RGB('',8.E-1,0.E0,8.E-1);
#70=COLOUR_RGB('',8.E-1,5.3E-1,4.E-1);
#71=COLOUR_RGB('',8.E-1,6.E-1,1.E0);
#72=COLOUR_RGB('',8.E-1,8.E-1,0.E0);
#73=COLOUR_RGB('',8.E-1,8.E-1,1.E0);
#74=COLOUR_RGB('',8.E-1,1.E0,8.E-1);
#75=COLOUR_RGB('',8.E-1,1.E0,1.E0);
#76=COLOUR_RGB('',8.7E-1,0.E0,0.E0);
#77=COLOUR_RGB('',8.7E-1,6.E-1,4.7E-1);
#78=COLOUR_RGB('',8.8E-1,7.39E-1,0.E0);
#79=COLOUR_RGB('',9.3E-1,0.E0,9.3E-1);
#80=COLOUR_RGB('',9.3E-1,6.7E-1,5.3E-1);
#81=COLOUR_RGB('',9.3E-1,8.E-1,1.E0);
#82=COLOUR_RGB('',9.3E-1,9.3E-1,0.E0);
#83=COLOUR_RGB('',9.3E-1,1.E0,9.3E-1);
#84=COLOUR_RGB('',9.3E-1,1.E0,1.E0);
#85=DRAUGHTING_PRE_DEFINED_COLOUR('red');
#86=COLOUR_RGB('',1.E0,0.E0,2.7E-1);
#87=COLOUR_RGB('',1.E0,0.E0,4.7E-1);
#88=DRAUGHTING_PRE_DEFINED_COLOUR('magenta');
#89=COLOUR_RGB('',1.E0,7.E-2,7.E-2);
#90=COLOUR_RGB('',1.E0,2.E-1,1.E0);
#91=COLOUR_RGB('',1.E0,2.7E-1,0.E0);
#92=COLOUR_RGB('',1.E0,2.7E-1,2.7E-1);
#93=COLOUR_RGB('',1.E0,4.E-1,1.E0);
#94=COLOUR_RGB('',1.E0,4.7E-1,0.E0);
#95=COLOUR_RGB('',1.E0,4.7E-1,4.7E-1);
#96=COLOUR_RGB('',1.E0,4.7E-1,5.3E-1);
#97=COLOUR_RGB('',1.E0,6.E-1,1.E0);
#98=COLOUR_RGB('',1.E0,6.7E-1,0.E0);
#99=COLOUR_RGB('',1.E0,6.7E-1,6.7E-1);
#100=COLOUR_RGB('',1.E0,7.3E-1,5.3E-1);
#101=COLOUR_RGB('',1.E0,7.3E-1,6.E-1);
#102=COLOUR_RGB('',1.E0,8.E-1,8.E-1);
#103=COLOUR_RGB('',1.E0,8.E-1,1.E0);
#104=COLOUR_RGB('',1.E0,8.7E-1,0.E0);
#105=COLOUR_RGB('',1.E0,9.3E-1,9.3E-1);
#106=COLOUR_RGB('',1.E0,9.3E-1,1.E0);
#107=DRAUGHTING_PRE_DEFINED_COLOUR('yellow');
#108=COLOUR_RGB('',1.E0,1.E0,1.3E-1);
#109=COLOUR_RGB('',1.E0,1.E0,3.3E-1);
#110=COLOUR_RGB('',1.E0,1.E0,5.3E-1);
#111=COLOUR_RGB('',1.E0,1.E0,7.3E-1);
#112=COLOUR_RGB('',1.E0,1.E0,9.3E-1);
#114=CARTESIAN_POINT('',(0.E0,0.E0,0.E0));
#115=DIRECTION('',(0.E0,-1.E0,0.E0));
#116=DIRECTION('',(1.E0,0.E0,0.E0));
#117=AXIS2_PLACEMENT_3D('',#114,#115,#116);
#119=DRAUGHTING_PRE_DEFINED_CURVE_FONT('continuous');
#120=CURVE_STYLE('',#119,POSITIVE_LENGTH_MEASURE(2.E-2),#78);
#121=PRESENTATION_STYLE_ASSIGNMENT((#120));
#122=STYLED_ITEM('',(#121),#118);
#123=CARTESIAN_POINT('',(0.E0,0.E0,0.E0));
#124=DIRECTION('',(0.E0,-1.E0,0.E0));
#125=DIRECTION('',(-1.E0,0.E0,0.E0));
#126=AXIS2_PLACEMENT_3D('',#123,#124,#125);
#128=CURVE_STYLE('',#119,POSITIVE_LENGTH_MEASURE(2.E-2),#78);
#129=PRESENTATION_STYLE_ASSIGNMENT((#128));
#130=STYLED_ITEM('',(#129),#127);
#131=CARTESIAN_POINT('',(0.E0,0.E0,0.E0));
#132=DIRECTION('',(0.E0,1.E0,0.E0));
#133=DIRECTION('',(0.E0,0.E0,1.E0));
#134=AXIS2_PLACEMENT_3D('',#131,#132,#133);
#136=CURVE_STYLE('',#119,POSITIVE_LENGTH_MEASURE(2.E-2),#78);
#137=PRESENTATION_STYLE_ASSIGNMENT((#136));
#138=STYLED_ITEM('',(#137),#135);
#139=CARTESIAN_POINT('',(0.E0,2.E-2,0.E0));
#140=DIRECTION('',(0.E0,1.E0,0.E0));
#141=DIRECTION('',(0.E0,0.E0,1.E0));
#142=AXIS2_PLACEMENT_3D('',#139,#140,#141);
#144=CURVE_STYLE('',#119,POSITIVE_LENGTH_MEASURE(2.E-2),#78);
#145=PRESENTATION_STYLE_ASSIGNMENT((#144));
#146=STYLED_ITEM('',(#145),#143);
#147=CARTESIAN_POINT('',(0.E0,0.E0,0.E0));
#148=DIRECTION('',(0.E0,1.E0,0.E0));
#149=DIRECTION('',(0.E0,0.E0,-1.E0));
#150=AXIS2_PLACEMENT_3D('',#147,#148,#149);
#152=CURVE_STYLE('',#119,POSITIVE_LENGTH_MEASURE(2.E-2),#78);
#153=PRESENTATION_STYLE_ASSIGNMENT((#152));
#154=STYLED_ITEM('',(#153),#151);
#155=DIRECTION('',(0.E0,7.071067811865E-1,-7.071067811865E-1));
#156=VECTOR('',#155,2.828427124746E-2);
#157=CARTESIAN_POINT('',(0.E0,0.E0,-1.55E-1));
#158=LINE('',#157,#156);
#159=CURVE_STYLE('',#119,POSITIVE_LENGTH_MEASURE(2.E-2),#78);
#160=PRESENTATION_STYLE_ASSIGNMENT((#159));
#161=STYLED_ITEM('',(#160),#158);
#162=CARTESIAN_POINT('',(0.E0,2.E-2,0.E0));
#163=DIRECTION('',(0.E0,1.E0,0.E0));
#164=DIRECTION('',(0.E0,0.E0,-1.E0));
#165=AXIS2_PLACEMENT_3D('',#162,#163,#164);
#167=CURVE_STYLE('',#119,POSITIVE_LENGTH_MEASURE(2.E-2),#78);
#168=PRESENTATION_STYLE_ASSIGNMENT((#167));
#169=STYLED_ITEM('',(#168),#166);
#170=DIRECTION('',(0.E0,7.071067811865E-1,7.071067811865E-1));
#171=VECTOR('',#170,2.828427124746E-2);
#172=CARTESIAN_POINT('',(0.E0,0.E0,1.55E-1));
#173=LINE('',#172,#171);
#174=CURVE_STYLE('',#119,POSITIVE_LENGTH_MEASURE(2.E-2),#78);
#175=PRESENTATION_STYLE_ASSIGNMENT((#174));
#176=STYLED_ITEM('',(#175),#173);
#177=DIRECTION('',(0.E0,1.E0,0.E0));
#178=VECTOR('',#177,8.E-2);
#179=CARTESIAN_POINT('',(0.E0,2.E-2,-1.75E-1));
#180=LINE('',#179,#178);
#181=CURVE_STYLE('',#119,POSITIVE_LENGTH_MEASURE(2.E-2),#78);
#182=PRESENTATION_STYLE_ASSIGNMENT((#181));
#183=STYLED_ITEM('',(#182),#180);
#184=DIRECTION('',(0.E0,1.E0,0.E0));
#185=VECTOR('',#184,8.E-2);
#186=CARTESIAN_POINT('',(0.E0,2.E-2,1.75E-1));
#187=LINE('',#186,#185);
#188=CURVE_STYLE('',#119,POSITIVE_LENGTH_MEASURE(2.E-2),#78);
#189=PRESENTATION_STYLE_ASSIGNMENT((#188));
#190=STYLED_ITEM('',(#189),#187);
#191=CARTESIAN_POINT('',(0.E0,1.E-1,0.E0));
#192=DIRECTION('',(0.E0,1.E0,0.E0));
#193=DIRECTION('',(0.E0,0.E0,1.E0));
#194=AXIS2_PLACEMENT_3D('',#191,#192,#193);
#196=CURVE_STYLE('',#119,POSITIVE_LENGTH_MEASURE(2.E-2),#78);
#197=PRESENTATION_STYLE_ASSIGNMENT((#196));
#198=STYLED_ITEM('',(#197),#195);
#199=CARTESIAN_POINT('',(0.E0,1.E-1,0.E0));
#200=DIRECTION('',(0.E0,1.E0,0.E0));
#201=DIRECTION('',(0.E0,0.E0,-1.E0));
#202=AXIS2_PLACEMENT_3D('',#199,#200,#201);
#204=CURVE_STYLE('',#119,POSITIVE_LENGTH_MEASURE(2.E-2),#78);
#205=PRESENTATION_STYLE_ASSIGNMENT((#204));
#206=STYLED_ITEM('',(#205),#203);
#207=CARTESIAN_POINT('',(0.E0,1.E-1,0.E0));
#208=DIRECTION('',(0.E0,1.E0,0.E0));
#209=DIRECTION('',(1.E0,0.E0,0.E0));
#210=AXIS2_PLACEMENT_3D('',#207,#208,#209);
#212=CURVE_STYLE('',#119,POSITIVE_LENGTH_MEASURE(2.E-2),#78);
#213=PRESENTATION_STYLE_ASSIGNMENT((#212));
#214=STYLED_ITEM('',(#213),#211);
#215=CARTESIAN_POINT('',(0.E0,1.E-1,0.E0));
#216=DIRECTION('',(0.E0,1.E0,0.E0));
#217=DIRECTION('',(-1.E0,0.E0,0.E0));
#218=AXIS2_PLACEMENT_3D('',#215,#216,#217);
#220=CURVE_STYLE('',#119,POSITIVE_LENGTH_MEASURE(2.E-2),#78);
#221=PRESENTATION_STYLE_ASSIGNMENT((#220));
#222=STYLED_ITEM('',(#221),#219);
#223=DIRECTION('',(0.E0,1.E0,0.E0));
#224=VECTOR('',#223,2.36E-1);
#225=CARTESIAN_POINT('',(1.55E-1,1.E-1,0.E0));
#226=LINE('',#225,#224);
#227=CURVE_STYLE('',#119,POSITIVE_LENGTH_MEASURE(2.E-2),#78);
#228=PRESENTATION_STYLE_ASSIGNMENT((#227));
#229=STYLED_ITEM('',(#228),#226);
#230=DIRECTION('',(0.E0,1.E0,0.E0));
#231=VECTOR('',#230,2.36E-1);
#232=CARTESIAN_POINT('',(-1.55E-1,1.E-1,0.E0));
#233=LINE('',#232,#231);
#234=CURVE_STYLE('',#119,POSITIVE_LENGTH_MEASURE(2.E-2),#78);
#235=PRESENTATION_STYLE_ASSIGNMENT((#234));
#236=STYLED_ITEM('',(#235),#233);
#237=CARTESIAN_POINT('',(0.E0,3.36E-1,0.E0));
#238=DIRECTION('',(0.E0,1.E0,0.E0));
#239=DIRECTION('',(1.E0,0.E0,0.E0));
#240=AXIS2_PLACEMENT_3D('',#237,#238,#239);
#242=CURVE_STYLE('',#119,POSITIVE_LENGTH_MEASURE(2.E-2),#78);
#243=PRESENTATION_STYLE_ASSIGNMENT((#242));
#244=STYLED_ITEM('',(#243),#241);
#245=CARTESIAN_POINT('',(0.E0,3.36E-1,0.E0));
#246=DIRECTION('',(0.E0,1.E0,0.E0));
#247=DIRECTION('',(-1.E0,0.E0,0.E0));
#248=AXIS2_PLACEMENT_3D('',#245,#246,#247);
#250=CURVE_STYLE('',#119,POSITIVE_LENGTH_MEASURE(2.E-2),#78);
#251=PRESENTATION_STYLE_ASSIGNMENT((#250));
#252=STYLED_ITEM('',(#251),#249);
#253=CARTESIAN_POINT('',(0.E0,3.36E-1,0.E0));
#254=DIRECTION('',(0.E0,-1.E0,0.E0));
#255=DIRECTION('',(1.E0,0.E0,0.E0));
#256=AXIS2_PLACEMENT_3D('',#253,#254,#255);
#258=CURVE_STYLE('',#119,POSITIVE_LENGTH_MEASURE(2.E-2),#78);
#259=PRESENTATION_STYLE_ASSIGNMENT((#258));
#260=STYLED_ITEM('',(#259),#257);
#261=CARTESIAN_POINT('',(0.E0,3.36E-1,0.E0));
#262=DIRECTION('',(0.E0,-1.E0,0.E0));
#263=DIRECTION('',(-1.E0,0.E0,0.E0));
#264=AXIS2_PLACEMENT_3D('',#261,#262,#263);
#266=CURVE_STYLE('',#119,POSITIVE_LENGTH_MEASURE(2.E-2),#78);
#267=PRESENTATION_STYLE_ASSIGNMENT((#266));
#268=STYLED_ITEM('',(#267),#265);
#269=DIRECTION('',(0.E0,-1.E0,0.E0));
#270=VECTOR('',#269,3.36E-1);
#271=CARTESIAN_POINT('',(1.25E-1,3.36E-1,0.E0));
#272=LINE('',#271,#270);
#273=CURVE_STYLE('',#119,POSITIVE_LENGTH_MEASURE(2.E-2),#78);
#274=PRESENTATION_STYLE_ASSIGNMENT((#273));
#275=STYLED_ITEM('',(#274),#272);
#276=DIRECTION('',(0.E0,-1.E0,0.E0));
#277=VECTOR('',#276,3.36E-1);
#278=CARTESIAN_POINT('',(-1.25E-1,3.36E-1,0.E0));
#279=LINE('',#278,#277);
#280=CURVE_STYLE('',#119,POSITIVE_LENGTH_MEASURE(2.E-2),#78);
#281=PRESENTATION_STYLE_ASSIGNMENT((#280));
#282=STYLED_ITEM('',(#281),#279);
#283=CARTESIAN_POINT('',(0.E0,1.E-1,1.75E-1));
#284=CARTESIAN_POINT('',(0.E0,1.E-1,-1.75E-1));
#285=VERTEX_POINT('',#283);
#286=VERTEX_POINT('',#284);
#287=CARTESIAN_POINT('',(1.55E-1,3.36E-1,0.E0));
#288=CARTESIAN_POINT('',(-1.55E-1,3.36E-1,0.E0));
#289=VERTEX_POINT('',#287);
#290=VERTEX_POINT('',#288);
#291=CARTESIAN_POINT('',(1.55E-1,1.E-1,0.E0));
#292=CARTESIAN_POINT('',(-1.55E-1,1.E-1,0.E0));
#293=VERTEX_POINT('',#291);
#294=VERTEX_POINT('',#292);
#295=CARTESIAN_POINT('',(1.25E-1,0.E0,0.E0));
#296=CARTESIAN_POINT('',(-1.25E-1,0.E0,0.E0));
#297=VERTEX_POINT('',#295);
#298=VERTEX_POINT('',#296);
#299=CARTESIAN_POINT('',(1.25E-1,3.36E-1,0.E0));
#300=CARTESIAN_POINT('',(-1.25E-1,3.36E-1,0.E0));
#301=VERTEX_POINT('',#299);
#302=VERTEX_POINT('',#300);
#303=CARTESIAN_POINT('',(0.E0,0.E0,1.55E-1));
#304=CARTESIAN_POINT('',(0.E0,0.E0,-1.55E-1));
#305=VERTEX_POINT('',#303);
#306=VERTEX_POINT('',#304);
#307=CARTESIAN_POINT('',(0.E0,2.E-2,1.75E-1));
#308=CARTESIAN_POINT('',(0.E0,2.E-2,-1.75E-1));
#309=VERTEX_POINT('',#307);
#310=VERTEX_POINT('',#308);
#311=CARTESIAN_POINT('',(0.E0,0.E0,0.E0));
#312=DIRECTION('',(0.E0,1.E0,0.E0));
#313=DIRECTION('',(0.E0,0.E0,1.E0));
#314=AXIS2_PLACEMENT_3D('',#311,#312,#313);
#315=PLANE('',#314);
#317=ORIENTED_EDGE('',*,*,#316,.T.);
#319=ORIENTED_EDGE('',*,*,#318,.T.);
#320=EDGE_LOOP('',(#317,#319));
#321=FACE_OUTER_BOUND('',#320,.F.);
#323=ORIENTED_EDGE('',*,*,#322,.T.);
#325=ORIENTED_EDGE('',*,*,#324,.T.);
#326=EDGE_LOOP('',(#323,#325));
#327=FACE_BOUND('',#326,.F.);
#328=ADVANCED_FACE('',(#321,#327),#315,.F.);
#329=CARTESIAN_POINT('',(0.E0,1.E-2,0.E0));
#330=DIRECTION('',(0.E0,1.E0,0.E0));
#331=DIRECTION('',(0.E0,0.E0,1.E0));
#332=AXIS2_PLACEMENT_3D('',#329,#330,#331);
#333=CONICAL_SURFACE('',#332,1.65E-1,4.5E1);
#334=ORIENTED_EDGE('',*,*,#316,.F.);
#336=ORIENTED_EDGE('',*,*,#335,.T.);
#338=ORIENTED_EDGE('',*,*,#337,.T.);
#340=ORIENTED_EDGE('',*,*,#339,.F.);
#341=EDGE_LOOP('',(#334,#336,#338,#340));
#342=FACE_OUTER_BOUND('',#341,.F.);
#343=ADVANCED_FACE('',(#342),#333,.T.);
#344=CARTESIAN_POINT('',(0.E0,1.E-2,0.E0));
#345=DIRECTION('',(0.E0,1.E0,0.E0));
#346=DIRECTION('',(0.E0,0.E0,1.E0));
#347=AXIS2_PLACEMENT_3D('',#344,#345,#346);
#348=CONICAL_SURFACE('',#347,1.65E-1,4.5E1);
#349=ORIENTED_EDGE('',*,*,#318,.F.);
#350=ORIENTED_EDGE('',*,*,#339,.T.);
#352=ORIENTED_EDGE('',*,*,#351,.T.);
#353=ORIENTED_EDGE('',*,*,#335,.F.);
#354=EDGE_LOOP('',(#349,#350,#352,#353));
#355=FACE_OUTER_BOUND('',#354,.F.);
#356=ADVANCED_FACE('',(#355),#348,.T.);
#357=CARTESIAN_POINT('',(0.E0,0.E0,0.E0));
#358=DIRECTION('',(0.E0,1.E0,0.E0));
#359=DIRECTION('',(0.E0,0.E0,1.E0));
#360=AXIS2_PLACEMENT_3D('',#357,#358,#359);
#361=CYLINDRICAL_SURFACE('',#360,1.75E-1);
#362=ORIENTED_EDGE('',*,*,#351,.F.);
#364=ORIENTED_EDGE('',*,*,#363,.T.);
#366=ORIENTED_EDGE('',*,*,#365,.T.);
#368=ORIENTED_EDGE('',*,*,#367,.F.);
#369=EDGE_LOOP('',(#362,#364,#366,#368));
#370=FACE_OUTER_BOUND('',#369,.F.);
#371=ADVANCED_FACE('',(#370),#361,.T.);
#372=CARTESIAN_POINT('',(0.E0,0.E0,0.E0));
#373=DIRECTION('',(0.E0,1.E0,0.E0));
#374=DIRECTION('',(0.E0,0.E0,1.E0));
#375=AXIS2_PLACEMENT_3D('',#372,#373,#374);
#376=CYLINDRICAL_SURFACE('',#375,1.75E-1);
#377=ORIENTED_EDGE('',*,*,#337,.F.);
#378=ORIENTED_EDGE('',*,*,#367,.T.);
#380=ORIENTED_EDGE('',*,*,#379,.T.);
#381=ORIENTED_EDGE('',*,*,#363,.F.);
#382=EDGE_LOOP('',(#377,#378,#380,#381));
#383=FACE_OUTER_BOUND('',#382,.F.);
#384=ADVANCED_FACE('',(#383),#376,.T.);
#385=CARTESIAN_POINT('',(0.E0,1.E-1,0.E0));
#386=DIRECTION('',(0.E0,1.E0,0.E0));
#387=DIRECTION('',(0.E0,0.E0,1.E0));
#388=AXIS2_PLACEMENT_3D('',#385,#386,#387);
#389=PLANE('',#388);
#390=ORIENTED_EDGE('',*,*,#379,.F.);
#391=ORIENTED_EDGE('',*,*,#365,.F.);
#392=EDGE_LOOP('',(#390,#391));
#393=FACE_OUTER_BOUND('',#392,.F.);
#395=ORIENTED_EDGE('',*,*,#394,.T.);
#397=ORIENTED_EDGE('',*,*,#396,.T.);
#398=EDGE_LOOP('',(#395,#397));
#399=FACE_BOUND('',#398,.F.);
#400=ADVANCED_FACE('',(#393,#399),#389,.T.);
#401=CARTESIAN_POINT('',(0.E0,1.E-1,0.E0));
#402=DIRECTION('',(0.E0,1.E0,0.E0));
#403=DIRECTION('',(1.E0,0.E0,0.E0));
#404=AXIS2_PLACEMENT_3D('',#401,#402,#403);
#405=CYLINDRICAL_SURFACE('',#404,1.55E-1);
#406=ORIENTED_EDGE('',*,*,#394,.F.);
#408=ORIENTED_EDGE('',*,*,#407,.T.);
#410=ORIENTED_EDGE('',*,*,#409,.T.);
#412=ORIENTED_EDGE('',*,*,#411,.F.);
#413=EDGE_LOOP('',(#406,#408,#410,#412));
#414=FACE_OUTER_BOUND('',#413,.F.);
#415=ADVANCED_FACE('',(#414),#405,.T.);
#416=CARTESIAN_POINT('',(0.E0,1.E-1,0.E0));
#417=DIRECTION('',(0.E0,1.E0,0.E0));
#418=DIRECTION('',(1.E0,0.E0,0.E0));
#419=AXIS2_PLACEMENT_3D('',#416,#417,#418);
#420=CYLINDRICAL_SURFACE('',#419,1.55E-1);
#421=ORIENTED_EDGE('',*,*,#396,.F.);
#422=ORIENTED_EDGE('',*,*,#411,.T.);
#424=ORIENTED_EDGE('',*,*,#423,.T.);
#425=ORIENTED_EDGE('',*,*,#407,.F.);
#426=EDGE_LOOP('',(#421,#422,#424,#425));
#427=FACE_OUTER_BOUND('',#426,.F.);
#428=ADVANCED_FACE('',(#427),#420,.T.);
#429=CARTESIAN_POINT('',(0.E0,3.36E-1,0.E0));
#430=DIRECTION('',(0.E0,1.E0,0.E0));
#431=DIRECTION('',(1.E0,0.E0,0.E0));
#432=AXIS2_PLACEMENT_3D('',#429,#430,#431);
#433=PLANE('',#432);
#434=ORIENTED_EDGE('',*,*,#409,.F.);
#435=ORIENTED_EDGE('',*,*,#423,.F.);
#436=EDGE_LOOP('',(#434,#435));
#437=FACE_OUTER_BOUND('',#436,.F.);
#439=ORIENTED_EDGE('',*,*,#438,.F.);
#441=ORIENTED_EDGE('',*,*,#440,.F.);
#442=EDGE_LOOP('',(#439,#441));
#443=FACE_BOUND('',#442,.F.);
#444=ADVANCED_FACE('',(#437,#443),#433,.T.);
#445=CARTESIAN_POINT('',(0.E0,3.36E-1,0.E0));
#446=DIRECTION('',(0.E0,-1.E0,0.E0));
#447=DIRECTION('',(1.E0,0.E0,0.E0));
#448=AXIS2_PLACEMENT_3D('',#445,#446,#447);
#449=CYLINDRICAL_SURFACE('',#448,1.25E-1);
#450=ORIENTED_EDGE('',*,*,#322,.F.);
#452=ORIENTED_EDGE('',*,*,#451,.F.);
#453=ORIENTED_EDGE('',*,*,#438,.T.);
#455=ORIENTED_EDGE('',*,*,#454,.T.);
#456=EDGE_LOOP('',(#450,#452,#453,#455));
#457=FACE_OUTER_BOUND('',#456,.F.);
#458=ADVANCED_FACE('',(#457),#449,.F.);
#459=CARTESIAN_POINT('',(0.E0,3.36E-1,0.E0));
#460=DIRECTION('',(0.E0,-1.E0,0.E0));
#461=DIRECTION('',(1.E0,0.E0,0.E0));
#462=AXIS2_PLACEMENT_3D('',#459,#460,#461);
#463=CYLINDRICAL_SURFACE('',#462,1.25E-1);
#464=ORIENTED_EDGE('',*,*,#324,.F.);
#465=ORIENTED_EDGE('',*,*,#454,.F.);
#466=ORIENTED_EDGE('',*,*,#440,.T.);
#467=ORIENTED_EDGE('',*,*,#451,.T.);
#468=EDGE_LOOP('',(#464,#465,#466,#467));
#469=FACE_OUTER_BOUND('',#468,.F.);
#470=ADVANCED_FACE('',(#469),#463,.F.);
#471=CLOSED_SHELL('',(#328,#343,#356,#371,#384,#400,#415,#428,#444,#458,#470));
#113=STYLED_ITEM('',(#478),#472);
#472=MANIFOLD_SOLID_BREP('',#471);
#473=FILL_AREA_STYLE_COLOUR('',#78);
#474=FILL_AREA_STYLE('',(#473));
#475=SURFACE_STYLE_FILL_AREA(#474);
#476=SURFACE_SIDE_STYLE('',(#475));
#477=SURFACE_STYLE_USAGE(.BOTH.,#476);
#478=PRESENTATION_STYLE_ASSIGNMENT((#477));
#479=DIMENSIONAL_EXPONENTS(1.E0,0.E0,0.E0,0.E0,0.E0,0.E0,0.E0);
#480=(LENGTH_UNIT()NAMED_UNIT(*)SI_UNIT(.MILLI.,.METRE.));
#481=LENGTH_MEASURE_WITH_UNIT(LENGTH_MEASURE(2.54E1),#480);
#482=(CONVERSION_BASED_UNIT('INCH',#481)LENGTH_UNIT()NAMED_UNIT(#479));
#483=DIMENSIONAL_EXPONENTS(0.E0,0.E0,0.E0,0.E0,0.E0,0.E0,0.E0);
#484=(NAMED_UNIT(*)PLANE_ANGLE_UNIT()SI_UNIT($,.RADIAN.));
#485=PLANE_ANGLE_MEASURE_WITH_UNIT(PLANE_ANGLE_MEASURE(1.745329251994E-2),#484);
#486=(CONVERSION_BASED_UNIT('DEGREE',#485)NAMED_UNIT(#483)PLANE_ANGLE_UNIT());
#487=(NAMED_UNIT(*)SI_UNIT($,.STERADIAN.)SOLID_ANGLE_UNIT());
#488=UNCERTAINTY_MEASURE_WITH_UNIT(LENGTH_MEASURE(5.982201675743E-5),#482,
'distance_accuracy_value',
'Maximum model space distance between geometric entities at asserted connectivities');
#489=(GEOMETRIC_REPRESENTATION_CONTEXT(3)GLOBAL_UNCERTAINTY_ASSIGNED_CONTEXT((
#488))GLOBAL_UNIT_ASSIGNED_CONTEXT((#482,#486,#487))REPRESENTATION_CONTEXT
('ID1','3'));
#491=MECHANICAL_DESIGN_GEOMETRIC_PRESENTATION_REPRESENTATION('',(#122,#130,#138,
#146,#154,#161,#169,#176,#183,#190,#198,#206,#214,#222,#229,#236,#244,#252,#260,
#268,#275,#282,#113),#489);
#492=APPLICATION_CONTEXT('automotive_design');
#493=APPLICATION_PROTOCOL_DEFINITION('draft international standard',
'automotive_design',1998,#492);
#494=PRODUCT_DEFINITION_CONTEXT('part definition',#492,'design');
#495=PRODUCT_CONTEXT('',#492,'mechanical');
#496=PRODUCT('ILC30500044','ILC30500044','NOT SPECIFIED',(#495));
#497=PRODUCT_DEFINITION_FORMATION_WITH_SPECIFIED_SOURCE('','LAST_VERSION',#496,
.MADE.);
#501=PRODUCT_TYPE('part','',(#496));
#118=CIRCLE('',#117,1.25E-1);
#127=CIRCLE('',#126,1.25E-1);
#135=CIRCLE('',#134,1.55E-1);
#143=CIRCLE('',#142,1.75E-1);
#151=CIRCLE('',#150,1.55E-1);
#166=CIRCLE('',#165,1.75E-1);
#195=CIRCLE('',#194,1.75E-1);
#203=CIRCLE('',#202,1.75E-1);
#211=CIRCLE('',#210,1.55E-1);
#219=CIRCLE('',#218,1.55E-1);
#241=CIRCLE('',#240,1.55E-1);
#249=CIRCLE('',#248,1.55E-1);
#257=CIRCLE('',#256,1.25E-1);
#265=CIRCLE('',#264,1.25E-1);
#316=EDGE_CURVE('',#305,#306,#135,.T.);
#318=EDGE_CURVE('',#306,#305,#151,.T.);
#322=EDGE_CURVE('',#297,#298,#118,.T.);
#324=EDGE_CURVE('',#298,#297,#127,.T.);
#335=EDGE_CURVE('',#305,#309,#173,.T.);
#337=EDGE_CURVE('',#309,#310,#143,.T.);
#339=EDGE_CURVE('',#306,#310,#158,.T.);
#351=EDGE_CURVE('',#310,#309,#166,.T.);
#363=EDGE_CURVE('',#310,#286,#180,.T.);
#365=EDGE_CURVE('',#286,#285,#203,.T.);
#367=EDGE_CURVE('',#309,#285,#187,.T.);
#379=EDGE_CURVE('',#285,#286,#195,.T.);
#394=EDGE_CURVE('',#293,#294,#211,.T.);
#396=EDGE_CURVE('',#294,#293,#219,.T.);
#407=EDGE_CURVE('',#293,#289,#226,.T.);
#409=EDGE_CURVE('',#289,#290,#241,.T.);
#411=EDGE_CURVE('',#294,#290,#233,.T.);
#423=EDGE_CURVE('',#290,#289,#249,.T.);
#438=EDGE_CURVE('',#301,#302,#257,.T.);
#440=EDGE_CURVE('',#302,#301,#265,.T.);
#451=EDGE_CURVE('',#301,#297,#272,.T.);
#454=EDGE_CURVE('',#302,#298,#279,.T.);
#490=ADVANCED_BREP_SHAPE_REPRESENTATION('',(#472),#489);
#498=PRODUCT_DEFINITION('part definition','',#497,#494);
#499=PRODUCT_DEFINITION_SHAPE('','SHAPE FOR ILC30500044.',#498);
#500=SHAPE_DEFINITION_REPRESENTATION(#499,#490);
ENDSEC;
END-ISO-10303-21;
