ISO-10303-21;
HEADER;
FILE_DESCRIPTION((''),'2;1');
FILE_NAME('ILC35000205','2005-08-24T',('KR'),(''),
'PRO/ENGINEER BY PARAMETRIC TECHNOLOGY CORPORATION, 2004290',
'PRO/ENGINEER BY PARAMETRIC TECHNOLOGY CORPORATION, 2004290','');
FILE_SCHEMA(('AUTOMOTIVE_DESIGN_CC2 { 1 2 10303 214 -1 1 5 2 }'));
ENDSEC;
DATA;
#1=COLOUR_RGB('',0.E0,0.E0,4.7E-1);
#2=COLOUR_RGB('',0.E0,0.E0,6.E-1);
#3=COLOUR_RGB('',0.E0,0.E0,8.E-1);
#4=DRAUGHTING_PRE_DEFINED_COLOUR('blue');
#5=COLOUR_RGB('',0.E0,2.E-1,1.E0);
#6=COLOUR_RGB('',0.E0,3.3E-1,0.E0);
#7=COLOUR_RGB('',0.E0,3.3E-1,3.3E-1);
#8=COLOUR_RGB('',0.E0,4.E-1,0.E0);
#9=COLOUR_RGB('',0.E0,4.E-1,4.E-1);
#10=COLOUR_RGB('',0.E0,4.E-1,1.E0);
#11=COLOUR_RGB('',0.E0,5.3E-1,5.3E-1);
#12=COLOUR_RGB('',0.E0,6.E-1,0.E0);
#13=COLOUR_RGB('',0.E0,6.E-1,6.E-1);
#14=COLOUR_RGB('',0.E0,6.E-1,1.E0);
#15=COLOUR_RGB('',0.E0,8.E-1,0.E0);
#16=COLOUR_RGB('',0.E0,8.E-1,8.E-1);
#17=COLOUR_RGB('',0.E0,8.E-1,1.E0);
#18=COLOUR_RGB('',0.E0,9.3E-1,0.E0);
#19=COLOUR_RGB('',0.E0,9.3E-1,9.3E-1);
#20=DRAUGHTING_PRE_DEFINED_COLOUR('green');
#21=COLOUR_RGB('',0.E0,1.E0,2.E-1);
#22=COLOUR_RGB('',0.E0,1.E0,4.E-1);
#23=COLOUR_RGB('',0.E0,1.E0,6.E-1);
#24=COLOUR_RGB('',0.E0,1.E0,8.E-1);
#25=DRAUGHTING_PRE_DEFINED_COLOUR('cyan');
#26=COLOUR_RGB('',7.E-2,7.E-2,1.E0);
#27=COLOUR_RGB('',2.E-1,1.E0,0.E0);
#28=COLOUR_RGB('',2.E-1,1.E0,2.E-1);
#29=COLOUR_RGB('',2.E-1,1.E0,1.E0);
#30=COLOUR_RGB('',2.7E-1,0.E0,4.E-1);
#31=COLOUR_RGB('',2.7E-1,2.7E-1,0.E0);
#32=COLOUR_RGB('',2.7E-1,2.7E-1,1.E0);
#33=COLOUR_RGB('',3.3E-1,0.E0,0.E0);
#34=COLOUR_RGB('',3.3E-1,0.E0,3.3E-1);
#35=COLOUR_RGB('',3.3E-1,0.E0,5.3E-1);
#36=COLOUR_RGB('',4.E-1,0.E0,4.E-1);
#37=COLOUR_RGB('',4.E-1,0.E0,6.7E-1);
#38=COLOUR_RGB('',4.E-1,1.3E-1,0.E0);
#39=COLOUR_RGB('',4.E-1,4.E-1,0.E0);
#40=COLOUR_RGB('',4.E-1,4.E-1,1.E0);
#41=COLOUR_RGB('',4.E-1,1.E0,0.E0);
#42=COLOUR_RGB('',4.E-1,1.E0,4.E-1);
#43=COLOUR_RGB('',4.E-1,1.E0,1.E0);
#44=COLOUR_RGB('',4.7E-1,0.E0,0.E0);
#45=COLOUR_RGB('',4.7E-1,0.E0,8.E-1);
#46=COLOUR_RGB('',4.7E-1,0.E0,8.7E-1);
#47=COLOUR_RGB('',4.7E-1,2.E-1,7.E-2);
#48=COLOUR_RGB('',4.7E-1,4.7E-1,4.7E-1);
#49=COLOUR_RGB('',5.3E-1,0.E0,9.3E-1);
#50=COLOUR_RGB('',5.3E-1,2.7E-1,1.3E-1);
#51=COLOUR_RGB('',5.3E-1,5.3E-1,1.E0);
#52=COLOUR_RGB('',6.E-1,0.E0,6.E-1);
#53=COLOUR_RGB('',6.E-1,2.E-1,1.E0);
#54=COLOUR_RGB('',6.E-1,3.3E-1,2.E-1);
#55=COLOUR_RGB('',6.E-1,6.E-1,0.E0);
#56=COLOUR_RGB('',6.E-1,6.E-1,1.E0);
#57=COLOUR_RGB('',6.E-1,1.E0,6.E-1);
#58=COLOUR_RGB('',6.E-1,1.E0,1.E0);
#59=COLOUR_RGB('',6.7E-1,0.E0,0.E0);
#60=COLOUR_RGB('',6.7E-1,0.E0,5.3E-1);
#61=COLOUR_RGB('',6.7E-1,4.E-1,2.7E-1);
#62=COLOUR_RGB('',6.7E-1,4.E-1,1.E0);
#63=COLOUR_RGB('',6.7E-1,6.7E-1,1.E0);
#64=COLOUR_RGB('',6.7E-1,1.E0,0.E0);
#65=COLOUR_RGB('',7.3E-1,2.7E-1,1.E0);
#66=COLOUR_RGB('',7.3E-1,4.E-1,0.E0);
#67=COLOUR_RGB('',7.3E-1,4.7E-1,3.3E-1);
#68=COLOUR_RGB('',7.3E-1,7.3E-1,7.3E-1);
#69=COLOUR_RGB('',8.E-1,0.E0,8.E-1);
#70=COLOUR_RGB('',8.E-1,5.3E-1,4.E-1);
#71=COLOUR_RGB('',8.E-1,6.E-1,1.E0);
#72=COLOUR_RGB('',8.E-1,8.E-1,0.E0);
#73=COLOUR_RGB('',8.E-1,8.E-1,1.E0);
#74=COLOUR_RGB('',8.E-1,1.E0,8.E-1);
#75=COLOUR_RGB('',8.E-1,1.E0,1.E0);
#76=COLOUR_RGB('',8.7E-1,0.E0,0.E0);
#77=COLOUR_RGB('',8.7E-1,6.E-1,4.7E-1);
#78=COLOUR_RGB('',9.3E-1,0.E0,9.3E-1);
#79=COLOUR_RGB('',9.3E-1,6.7E-1,5.3E-1);
#80=COLOUR_RGB('',9.3E-1,8.E-1,1.E0);
#81=COLOUR_RGB('',9.3E-1,9.3E-1,0.E0);
#82=COLOUR_RGB('',9.3E-1,1.E0,9.3E-1);
#83=COLOUR_RGB('',9.3E-1,1.E0,1.E0);
#84=DRAUGHTING_PRE_DEFINED_COLOUR('red');
#85=COLOUR_RGB('',1.E0,0.E0,2.7E-1);
#86=COLOUR_RGB('',1.E0,0.E0,4.7E-1);
#87=DRAUGHTING_PRE_DEFINED_COLOUR('magenta');
#88=COLOUR_RGB('',1.E0,7.E-2,7.E-2);
#89=COLOUR_RGB('',1.E0,2.E-1,1.E0);
#90=COLOUR_RGB('',1.E0,2.7E-1,0.E0);
#91=COLOUR_RGB('',1.E0,2.7E-1,2.7E-1);
#92=COLOUR_RGB('',1.E0,4.E-1,1.E0);
#93=COLOUR_RGB('',1.E0,4.7E-1,0.E0);
#94=COLOUR_RGB('',1.E0,4.7E-1,4.7E-1);
#95=COLOUR_RGB('',1.E0,4.7E-1,5.3E-1);
#96=COLOUR_RGB('',1.E0,6.E-1,1.E0);
#97=COLOUR_RGB('',1.E0,6.7E-1,0.E0);
#98=COLOUR_RGB('',1.E0,6.7E-1,6.7E-1);
#99=COLOUR_RGB('',1.E0,7.3E-1,5.3E-1);
#100=COLOUR_RGB('',1.E0,7.3E-1,6.E-1);
#101=COLOUR_RGB('',1.E0,8.E-1,8.E-1);
#102=COLOUR_RGB('',1.E0,8.E-1,1.E0);
#103=COLOUR_RGB('',1.E0,8.7E-1,0.E0);
#104=COLOUR_RGB('',1.E0,9.3E-1,9.3E-1);
#105=COLOUR_RGB('',1.E0,9.3E-1,1.E0);
#106=DRAUGHTING_PRE_DEFINED_COLOUR('yellow');
#107=COLOUR_RGB('',1.E0,1.E0,1.3E-1);
#108=COLOUR_RGB('',1.E0,1.E0,3.3E-1);
#109=COLOUR_RGB('',1.E0,1.E0,5.3E-1);
#110=COLOUR_RGB('',1.E0,1.E0,7.3E-1);
#111=COLOUR_RGB('',1.E0,1.E0,9.3E-1);
#112=CARTESIAN_POINT('',(0.E0,0.E0,0.E0));
#113=DIRECTION('',(1.E0,0.E0,0.E0));
#114=DIRECTION('',(0.E0,0.E0,1.E0));
#115=AXIS2_PLACEMENT_3D('',#112,#113,#114);
#117=CARTESIAN_POINT('',(0.E0,0.E0,0.E0));
#118=DIRECTION('',(1.E0,0.E0,0.E0));
#119=DIRECTION('',(0.E0,0.E0,-1.E0));
#120=AXIS2_PLACEMENT_3D('',#117,#118,#119);
#122=CARTESIAN_POINT('',(0.E0,0.E0,0.E0));
#123=DIRECTION('',(-1.E0,0.E0,0.E0));
#124=DIRECTION('',(0.E0,0.E0,1.E0));
#125=AXIS2_PLACEMENT_3D('',#122,#123,#124);
#127=CARTESIAN_POINT('',(-1.5E-2,0.E0,0.E0));
#128=DIRECTION('',(-1.E0,0.E0,0.E0));
#129=DIRECTION('',(0.E0,0.E0,1.E0));
#130=AXIS2_PLACEMENT_3D('',#127,#128,#129);
#132=CARTESIAN_POINT('',(0.E0,0.E0,0.E0));
#133=DIRECTION('',(-1.E0,0.E0,0.E0));
#134=DIRECTION('',(0.E0,0.E0,-1.E0));
#135=AXIS2_PLACEMENT_3D('',#132,#133,#134);
#137=DIRECTION('',(-7.071067811865E-1,0.E0,-7.071067811865E-1));
#138=VECTOR('',#137,2.121320343560E-2);
#139=CARTESIAN_POINT('',(0.E0,0.E0,-1.1E-1));
#140=LINE('',#139,#138);
#141=CARTESIAN_POINT('',(-1.5E-2,0.E0,0.E0));
#142=DIRECTION('',(-1.E0,0.E0,0.E0));
#143=DIRECTION('',(0.E0,0.E0,-1.E0));
#144=AXIS2_PLACEMENT_3D('',#141,#142,#143);
#146=DIRECTION('',(-7.071067811865E-1,0.E0,7.071067811865E-1));
#147=VECTOR('',#146,2.121320343560E-2);
#148=CARTESIAN_POINT('',(0.E0,0.E0,1.1E-1));
#149=LINE('',#148,#147);
#150=DIRECTION('',(-1.E0,0.E0,0.E0));
#151=VECTOR('',#150,5.997E1);
#152=CARTESIAN_POINT('',(-1.5E-2,0.E0,-1.25E-1));
#153=LINE('',#152,#151);
#154=DIRECTION('',(-1.E0,0.E0,0.E0));
#155=VECTOR('',#154,5.997E1);
#156=CARTESIAN_POINT('',(-1.5E-2,0.E0,1.25E-1));
#157=LINE('',#156,#155);
#158=CARTESIAN_POINT('',(-6.E1,0.E0,0.E0));
#159=DIRECTION('',(-1.E0,0.E0,0.E0));
#160=DIRECTION('',(0.E0,0.E0,1.E0));
#161=AXIS2_PLACEMENT_3D('',#158,#159,#160);
#163=CARTESIAN_POINT('',(-5.9985E1,0.E0,0.E0));
#164=DIRECTION('',(-1.E0,0.E0,0.E0));
#165=DIRECTION('',(0.E0,0.E0,1.E0));
#166=AXIS2_PLACEMENT_3D('',#163,#164,#165);
#168=CARTESIAN_POINT('',(-6.E1,0.E0,0.E0));
#169=DIRECTION('',(1.E0,0.E0,0.E0));
#170=DIRECTION('',(0.E0,0.E0,1.E0));
#171=AXIS2_PLACEMENT_3D('',#168,#169,#170);
#173=CARTESIAN_POINT('',(-6.E1,0.E0,0.E0));
#174=DIRECTION('',(1.E0,0.E0,0.E0));
#175=DIRECTION('',(0.E0,0.E0,-1.E0));
#176=AXIS2_PLACEMENT_3D('',#173,#174,#175);
#178=CARTESIAN_POINT('',(-6.E1,0.E0,0.E0));
#179=DIRECTION('',(-1.E0,0.E0,0.E0));
#180=DIRECTION('',(0.E0,0.E0,-1.E0));
#181=AXIS2_PLACEMENT_3D('',#178,#179,#180);
#183=DIRECTION('',(7.071067811864E-1,0.E0,7.071067811867E-1));
#184=VECTOR('',#183,2.121320343559E-2);
#185=CARTESIAN_POINT('',(-6.E1,0.E0,1.1E-1));
#186=LINE('',#185,#184);
#187=CARTESIAN_POINT('',(-5.9985E1,0.E0,0.E0));
#188=DIRECTION('',(-1.E0,0.E0,0.E0));
#189=DIRECTION('',(0.E0,0.E0,-1.E0));
#190=AXIS2_PLACEMENT_3D('',#187,#188,#189);
#192=DIRECTION('',(7.071067811864E-1,0.E0,-7.071067811867E-1));
#193=VECTOR('',#192,2.121320343559E-2);
#194=CARTESIAN_POINT('',(-6.E1,0.E0,-1.1E-1));
#195=LINE('',#194,#193);
#196=DIRECTION('',(-1.E0,0.E0,0.E0));
#197=VECTOR('',#196,6.E1);
#198=CARTESIAN_POINT('',(0.E0,0.E0,7.6E-2));
#199=LINE('',#198,#197);
#200=DIRECTION('',(-1.E0,0.E0,0.E0));
#201=VECTOR('',#200,6.E1);
#202=CARTESIAN_POINT('',(0.E0,0.E0,-7.6E-2));
#203=LINE('',#202,#201);
#204=CARTESIAN_POINT('',(0.E0,0.E0,7.6E-2));
#205=CARTESIAN_POINT('',(0.E0,0.E0,-7.6E-2));
#206=VERTEX_POINT('',#204);
#207=VERTEX_POINT('',#205);
#208=CARTESIAN_POINT('',(-6.E1,0.E0,7.6E-2));
#209=CARTESIAN_POINT('',(-6.E1,0.E0,-7.6E-2));
#210=VERTEX_POINT('',#208);
#211=VERTEX_POINT('',#209);
#212=CARTESIAN_POINT('',(-6.E1,0.E0,1.1E-1));
#213=CARTESIAN_POINT('',(-6.E1,0.E0,-1.1E-1));
#214=VERTEX_POINT('',#212);
#215=VERTEX_POINT('',#213);
#216=CARTESIAN_POINT('',(-5.9985E1,0.E0,1.25E-1));
#217=CARTESIAN_POINT('',(-5.9985E1,0.E0,-1.25E-1));
#218=VERTEX_POINT('',#216);
#219=VERTEX_POINT('',#217);
#220=CARTESIAN_POINT('',(0.E0,0.E0,1.1E-1));
#221=CARTESIAN_POINT('',(0.E0,0.E0,-1.1E-1));
#222=VERTEX_POINT('',#220);
#223=VERTEX_POINT('',#221);
#224=CARTESIAN_POINT('',(-1.5E-2,0.E0,1.25E-1));
#225=CARTESIAN_POINT('',(-1.5E-2,0.E0,-1.25E-1));
#226=VERTEX_POINT('',#224);
#227=VERTEX_POINT('',#225);
#228=CARTESIAN_POINT('',(0.E0,0.E0,0.E0));
#229=DIRECTION('',(-1.E0,0.E0,0.E0));
#230=DIRECTION('',(0.E0,0.E0,1.E0));
#231=AXIS2_PLACEMENT_3D('',#228,#229,#230);
#232=PLANE('',#231);
#234=ORIENTED_EDGE('',*,*,#233,.T.);
#236=ORIENTED_EDGE('',*,*,#235,.T.);
#237=EDGE_LOOP('',(#234,#236));
#238=FACE_OUTER_BOUND('',#237,.F.);
#240=ORIENTED_EDGE('',*,*,#239,.T.);
#242=ORIENTED_EDGE('',*,*,#241,.T.);
#243=EDGE_LOOP('',(#240,#242));
#244=FACE_BOUND('',#243,.F.);
#245=ADVANCED_FACE('',(#238,#244),#232,.F.);
#246=CARTESIAN_POINT('',(-7.5E-3,0.E0,0.E0));
#247=DIRECTION('',(-1.E0,0.E0,0.E0));
#248=DIRECTION('',(0.E0,0.E0,1.E0));
#249=AXIS2_PLACEMENT_3D('',#246,#247,#248);
#250=CONICAL_SURFACE('',#249,1.175E-1,4.5E1);
#251=ORIENTED_EDGE('',*,*,#233,.F.);
#253=ORIENTED_EDGE('',*,*,#252,.T.);
#255=ORIENTED_EDGE('',*,*,#254,.T.);
#257=ORIENTED_EDGE('',*,*,#256,.F.);
#258=EDGE_LOOP('',(#251,#253,#255,#257));
#259=FACE_OUTER_BOUND('',#258,.F.);
#260=ADVANCED_FACE('',(#259),#250,.T.);
#261=CARTESIAN_POINT('',(-7.5E-3,0.E0,0.E0));
#262=DIRECTION('',(-1.E0,0.E0,0.E0));
#263=DIRECTION('',(0.E0,0.E0,1.E0));
#264=AXIS2_PLACEMENT_3D('',#261,#262,#263);
#265=CONICAL_SURFACE('',#264,1.175E-1,4.5E1);
#266=ORIENTED_EDGE('',*,*,#235,.F.);
#267=ORIENTED_EDGE('',*,*,#256,.T.);
#269=ORIENTED_EDGE('',*,*,#268,.T.);
#270=ORIENTED_EDGE('',*,*,#252,.F.);
#271=EDGE_LOOP('',(#266,#267,#269,#270));
#272=FACE_OUTER_BOUND('',#271,.F.);
#273=ADVANCED_FACE('',(#272),#265,.T.);
#274=CARTESIAN_POINT('',(0.E0,0.E0,0.E0));
#275=DIRECTION('',(-1.E0,0.E0,0.E0));
#276=DIRECTION('',(0.E0,0.E0,1.E0));
#277=AXIS2_PLACEMENT_3D('',#274,#275,#276);
#278=CYLINDRICAL_SURFACE('',#277,1.25E-1);
#279=ORIENTED_EDGE('',*,*,#268,.F.);
#281=ORIENTED_EDGE('',*,*,#280,.T.);
#283=ORIENTED_EDGE('',*,*,#282,.T.);
#285=ORIENTED_EDGE('',*,*,#284,.F.);
#286=EDGE_LOOP('',(#279,#281,#283,#285));
#287=FACE_OUTER_BOUND('',#286,.F.);
#288=ADVANCED_FACE('',(#287),#278,.T.);
#289=CARTESIAN_POINT('',(0.E0,0.E0,0.E0));
#290=DIRECTION('',(-1.E0,0.E0,0.E0));
#291=DIRECTION('',(0.E0,0.E0,1.E0));
#292=AXIS2_PLACEMENT_3D('',#289,#290,#291);
#293=CYLINDRICAL_SURFACE('',#292,1.25E-1);
#294=ORIENTED_EDGE('',*,*,#254,.F.);
#295=ORIENTED_EDGE('',*,*,#284,.T.);
#297=ORIENTED_EDGE('',*,*,#296,.T.);
#298=ORIENTED_EDGE('',*,*,#280,.F.);
#299=EDGE_LOOP('',(#294,#295,#297,#298));
#300=FACE_OUTER_BOUND('',#299,.F.);
#301=ADVANCED_FACE('',(#300),#293,.T.);
#302=CARTESIAN_POINT('',(-5.99925E1,0.E0,0.E0));
#303=DIRECTION('',(1.E0,0.E0,0.E0));
#304=DIRECTION('',(0.E0,0.E0,-1.E0));
#305=AXIS2_PLACEMENT_3D('',#302,#303,#304);
#306=CONICAL_SURFACE('',#305,1.175E-1,4.5E1);
#308=ORIENTED_EDGE('',*,*,#307,.T.);
#310=ORIENTED_EDGE('',*,*,#309,.T.);
#311=ORIENTED_EDGE('',*,*,#296,.F.);
#313=ORIENTED_EDGE('',*,*,#312,.F.);
#314=EDGE_LOOP('',(#308,#310,#311,#313));
#315=FACE_OUTER_BOUND('',#314,.F.);
#316=ADVANCED_FACE('',(#315),#306,.T.);
#317=CARTESIAN_POINT('',(-6.E1,0.E0,0.E0));
#318=DIRECTION('',(-1.E0,0.E0,0.E0));
#319=DIRECTION('',(0.E0,0.E0,1.E0));
#320=AXIS2_PLACEMENT_3D('',#317,#318,#319);
#321=PLANE('',#320);
#322=ORIENTED_EDGE('',*,*,#307,.F.);
#324=ORIENTED_EDGE('',*,*,#323,.F.);
#325=EDGE_LOOP('',(#322,#324));
#326=FACE_OUTER_BOUND('',#325,.F.);
#328=ORIENTED_EDGE('',*,*,#327,.F.);
#330=ORIENTED_EDGE('',*,*,#329,.F.);
#331=EDGE_LOOP('',(#328,#330));
#332=FACE_BOUND('',#331,.F.);
#333=ADVANCED_FACE('',(#326,#332),#321,.T.);
#334=CARTESIAN_POINT('',(-5.99925E1,0.E0,0.E0));
#335=DIRECTION('',(1.E0,0.E0,0.E0));
#336=DIRECTION('',(0.E0,0.E0,-1.E0));
#337=AXIS2_PLACEMENT_3D('',#334,#335,#336);
#338=CONICAL_SURFACE('',#337,1.175E-1,4.5E1);
#339=ORIENTED_EDGE('',*,*,#323,.T.);
#340=ORIENTED_EDGE('',*,*,#312,.T.);
#341=ORIENTED_EDGE('',*,*,#282,.F.);
#342=ORIENTED_EDGE('',*,*,#309,.F.);
#343=EDGE_LOOP('',(#339,#340,#341,#342));
#344=FACE_OUTER_BOUND('',#343,.F.);
#345=ADVANCED_FACE('',(#344),#338,.T.);
#346=CARTESIAN_POINT('',(0.E0,0.E0,0.E0));
#347=DIRECTION('',(-1.E0,0.E0,0.E0));
#348=DIRECTION('',(0.E0,0.E0,1.E0));
#349=AXIS2_PLACEMENT_3D('',#346,#347,#348);
#350=CYLINDRICAL_SURFACE('',#349,7.6E-2);
#351=ORIENTED_EDGE('',*,*,#239,.F.);
#353=ORIENTED_EDGE('',*,*,#352,.T.);
#354=ORIENTED_EDGE('',*,*,#327,.T.);
#356=ORIENTED_EDGE('',*,*,#355,.F.);
#357=EDGE_LOOP('',(#351,#353,#354,#356));
#358=FACE_OUTER_BOUND('',#357,.F.);
#359=ADVANCED_FACE('',(#358),#350,.F.);
#360=CARTESIAN_POINT('',(0.E0,0.E0,0.E0));
#361=DIRECTION('',(-1.E0,0.E0,0.E0));
#362=DIRECTION('',(0.E0,0.E0,1.E0));
#363=AXIS2_PLACEMENT_3D('',#360,#361,#362);
#364=CYLINDRICAL_SURFACE('',#363,7.6E-2);
#365=ORIENTED_EDGE('',*,*,#241,.F.);
#366=ORIENTED_EDGE('',*,*,#355,.T.);
#367=ORIENTED_EDGE('',*,*,#329,.T.);
#368=ORIENTED_EDGE('',*,*,#352,.F.);
#369=EDGE_LOOP('',(#365,#366,#367,#368));
#370=FACE_OUTER_BOUND('',#369,.F.);
#371=ADVANCED_FACE('',(#370),#364,.F.);
#372=CLOSED_SHELL('',(#245,#260,#273,#288,#301,#316,#333,#345,#359,#371));
#373=MANIFOLD_SOLID_BREP('',#372);
#374=DIMENSIONAL_EXPONENTS(1.E0,0.E0,0.E0,0.E0,0.E0,0.E0,0.E0);
#375=(LENGTH_UNIT()NAMED_UNIT(*)SI_UNIT(.MILLI.,.METRE.));
#376=LENGTH_MEASURE_WITH_UNIT(LENGTH_MEASURE(2.54E1),#375);
#377=(CONVERSION_BASED_UNIT('INCH',#376)LENGTH_UNIT()NAMED_UNIT(#374));
#378=DIMENSIONAL_EXPONENTS(0.E0,0.E0,0.E0,0.E0,0.E0,0.E0,0.E0);
#379=(NAMED_UNIT(*)PLANE_ANGLE_UNIT()SI_UNIT($,.RADIAN.));
#380=PLANE_ANGLE_MEASURE_WITH_UNIT(PLANE_ANGLE_MEASURE(1.745329251994E-2),#379);
#381=(CONVERSION_BASED_UNIT('DEGREE',#380)NAMED_UNIT(#378)PLANE_ANGLE_UNIT());
#382=(NAMED_UNIT(*)SI_UNIT($,.STERADIAN.)SOLID_ANGLE_UNIT());
#383=UNCERTAINTY_MEASURE_WITH_UNIT(LENGTH_MEASURE(5.999864161596E-3),#377,
'distance_accuracy_value',
'Maximum model space distance between geometric entities at asserted connectivities');
#384=(GEOMETRIC_REPRESENTATION_CONTEXT(3)GLOBAL_UNCERTAINTY_ASSIGNED_CONTEXT((
#383))GLOBAL_UNIT_ASSIGNED_CONTEXT((#377,#381,#382))REPRESENTATION_CONTEXT
('ID1','3'));
#386=APPLICATION_CONTEXT('automotive_design');
#387=APPLICATION_PROTOCOL_DEFINITION('draft international standard',
'automotive_design',1998,#386);
#388=PRODUCT_DEFINITION_CONTEXT('part definition',#386,'design');
#389=PRODUCT_CONTEXT('',#386,'mechanical');
#390=PRODUCT('ILC35000205','ILC35000205','NOT SPECIFIED',(#389));
#391=PRODUCT_DEFINITION_FORMATION_WITH_SPECIFIED_SOURCE('','LAST_VERSION',#390,
.MADE.);
#395=PRODUCT_TYPE('part','',(#390));
#116=CIRCLE('',#115,7.6E-2);
#121=CIRCLE('',#120,7.6E-2);
#126=CIRCLE('',#125,1.1E-1);
#131=CIRCLE('',#130,1.25E-1);
#136=CIRCLE('',#135,1.1E-1);
#145=CIRCLE('',#144,1.25E-1);
#162=CIRCLE('',#161,1.1E-1);
#167=CIRCLE('',#166,1.25E-1);
#172=CIRCLE('',#171,7.6E-2);
#177=CIRCLE('',#176,7.6E-2);
#182=CIRCLE('',#181,1.1E-1);
#191=CIRCLE('',#190,1.25E-1);
#233=EDGE_CURVE('',#222,#223,#126,.T.);
#235=EDGE_CURVE('',#223,#222,#136,.T.);
#239=EDGE_CURVE('',#206,#207,#116,.T.);
#241=EDGE_CURVE('',#207,#206,#121,.T.);
#252=EDGE_CURVE('',#222,#226,#149,.T.);
#254=EDGE_CURVE('',#226,#227,#131,.T.);
#256=EDGE_CURVE('',#223,#227,#140,.T.);
#268=EDGE_CURVE('',#227,#226,#145,.T.);
#280=EDGE_CURVE('',#227,#219,#153,.T.);
#282=EDGE_CURVE('',#219,#218,#191,.T.);
#284=EDGE_CURVE('',#226,#218,#157,.T.);
#296=EDGE_CURVE('',#218,#219,#167,.T.);
#307=EDGE_CURVE('',#214,#215,#162,.T.);
#309=EDGE_CURVE('',#215,#219,#195,.T.);
#312=EDGE_CURVE('',#214,#218,#186,.T.);
#323=EDGE_CURVE('',#215,#214,#182,.T.);
#327=EDGE_CURVE('',#210,#211,#172,.T.);
#329=EDGE_CURVE('',#211,#210,#177,.T.);
#352=EDGE_CURVE('',#206,#210,#199,.T.);
#355=EDGE_CURVE('',#207,#211,#203,.T.);
#385=ADVANCED_BREP_SHAPE_REPRESENTATION('',(#373),#384);
#392=PRODUCT_DEFINITION('part definition','',#391,#388);
#393=PRODUCT_DEFINITION_SHAPE('','SHAPE FOR ILC35000205.',#392);
#394=SHAPE_DEFINITION_REPRESENTATION(#393,#385);
ENDSEC;
END-ISO-10303-21;
