ISO-10303-21;
HEADER;
FILE_DESCRIPTION((''),'2;1');
FILE_NAME('ILC64031300','2005-06-27T',('KR'),(''),
'PRO/ENGINEER BY PARAMETRIC TECHNOLOGY CORPORATION, 2004290',
'PRO/ENGINEER BY PARAMETRIC TECHNOLOGY CORPORATION, 2004290','');
FILE_SCHEMA(('AUTOMOTIVE_DESIGN_CC2 { 1 2 10303 214 -1 1 5 2 }'));
ENDSEC;
DATA;
#1=COLOUR_RGB('',0.E0,0.E0,4.7E-1);
#2=COLOUR_RGB('',0.E0,0.E0,6.E-1);
#3=COLOUR_RGB('',0.E0,0.E0,8.E-1);
#4=DRAUGHTING_PRE_DEFINED_COLOUR('blue');
#5=COLOUR_RGB('',0.E0,2.E-1,1.E0);
#6=COLOUR_RGB('',0.E0,3.3E-1,0.E0);
#7=COLOUR_RGB('',0.E0,3.3E-1,3.3E-1);
#8=COLOUR_RGB('',0.E0,4.E-1,0.E0);
#9=COLOUR_RGB('',0.E0,4.E-1,4.E-1);
#10=COLOUR_RGB('',0.E0,4.E-1,1.E0);
#11=COLOUR_RGB('',0.E0,5.3E-1,5.3E-1);
#12=COLOUR_RGB('',0.E0,6.E-1,0.E0);
#13=COLOUR_RGB('',0.E0,6.E-1,6.E-1);
#14=COLOUR_RGB('',0.E0,6.E-1,1.E0);
#15=COLOUR_RGB('',0.E0,8.E-1,0.E0);
#16=COLOUR_RGB('',0.E0,8.E-1,8.E-1);
#17=COLOUR_RGB('',0.E0,8.E-1,1.E0);
#18=COLOUR_RGB('',0.E0,9.3E-1,0.E0);
#19=COLOUR_RGB('',0.E0,9.3E-1,9.3E-1);
#20=DRAUGHTING_PRE_DEFINED_COLOUR('green');
#21=COLOUR_RGB('',0.E0,1.E0,2.E-1);
#22=COLOUR_RGB('',0.E0,1.E0,4.E-1);
#23=COLOUR_RGB('',0.E0,1.E0,6.E-1);
#24=COLOUR_RGB('',0.E0,1.E0,8.E-1);
#25=DRAUGHTING_PRE_DEFINED_COLOUR('cyan');
#26=COLOUR_RGB('',7.E-2,7.E-2,1.E0);
#27=COLOUR_RGB('',2.E-1,1.E0,0.E0);
#28=COLOUR_RGB('',2.E-1,1.E0,2.E-1);
#29=COLOUR_RGB('',2.E-1,1.E0,1.E0);
#30=COLOUR_RGB('',2.7E-1,0.E0,4.E-1);
#31=COLOUR_RGB('',2.7E-1,2.7E-1,0.E0);
#32=COLOUR_RGB('',2.7E-1,2.7E-1,1.E0);
#33=COLOUR_RGB('',3.3E-1,0.E0,0.E0);
#34=COLOUR_RGB('',3.3E-1,0.E0,3.3E-1);
#35=COLOUR_RGB('',3.3E-1,0.E0,5.3E-1);
#36=COLOUR_RGB('',4.E-1,0.E0,4.E-1);
#37=COLOUR_RGB('',4.E-1,0.E0,6.7E-1);
#38=COLOUR_RGB('',4.E-1,1.3E-1,0.E0);
#39=COLOUR_RGB('',4.E-1,4.E-1,0.E0);
#40=COLOUR_RGB('',4.E-1,4.E-1,1.E0);
#41=COLOUR_RGB('',4.E-1,1.E0,0.E0);
#42=COLOUR_RGB('',4.E-1,1.E0,4.E-1);
#43=COLOUR_RGB('',4.E-1,1.E0,1.E0);
#44=COLOUR_RGB('',4.7E-1,0.E0,0.E0);
#45=COLOUR_RGB('',4.7E-1,0.E0,8.E-1);
#46=COLOUR_RGB('',4.7E-1,0.E0,8.7E-1);
#47=COLOUR_RGB('',4.7E-1,2.E-1,7.E-2);
#48=COLOUR_RGB('',4.7E-1,4.7E-1,4.7E-1);
#49=COLOUR_RGB('',5.3E-1,0.E0,9.3E-1);
#50=COLOUR_RGB('',5.3E-1,2.7E-1,1.3E-1);
#51=COLOUR_RGB('',5.3E-1,5.3E-1,1.E0);
#52=COLOUR_RGB('',6.E-1,0.E0,6.E-1);
#53=COLOUR_RGB('',6.E-1,2.E-1,1.E0);
#54=COLOUR_RGB('',6.E-1,3.3E-1,2.E-1);
#55=COLOUR_RGB('',6.E-1,6.E-1,0.E0);
#56=COLOUR_RGB('',6.E-1,6.E-1,1.E0);
#57=COLOUR_RGB('',6.E-1,1.E0,6.E-1);
#58=COLOUR_RGB('',6.E-1,1.E0,1.E0);
#59=COLOUR_RGB('',6.7E-1,0.E0,0.E0);
#60=COLOUR_RGB('',6.7E-1,0.E0,5.3E-1);
#61=COLOUR_RGB('',6.7E-1,4.E-1,2.7E-1);
#62=COLOUR_RGB('',6.7E-1,4.E-1,1.E0);
#63=COLOUR_RGB('',6.7E-1,6.7E-1,1.E0);
#64=COLOUR_RGB('',6.7E-1,1.E0,0.E0);
#65=COLOUR_RGB('',7.3E-1,2.7E-1,1.E0);
#66=COLOUR_RGB('',7.3E-1,4.E-1,0.E0);
#67=COLOUR_RGB('',7.3E-1,4.7E-1,3.3E-1);
#68=COLOUR_RGB('',7.3E-1,7.3E-1,7.3E-1);
#69=COLOUR_RGB('',8.E-1,0.E0,8.E-1);
#70=COLOUR_RGB('',8.E-1,5.3E-1,4.E-1);
#71=COLOUR_RGB('',8.E-1,6.E-1,1.E0);
#72=COLOUR_RGB('',8.E-1,8.E-1,0.E0);
#73=COLOUR_RGB('',8.E-1,8.E-1,1.E0);
#74=COLOUR_RGB('',8.E-1,1.E0,8.E-1);
#75=COLOUR_RGB('',8.E-1,1.E0,1.E0);
#76=COLOUR_RGB('',8.7E-1,0.E0,0.E0);
#77=COLOUR_RGB('',8.7E-1,6.E-1,4.7E-1);
#78=COLOUR_RGB('',9.3E-1,0.E0,9.3E-1);
#79=COLOUR_RGB('',9.3E-1,6.7E-1,5.3E-1);
#80=COLOUR_RGB('',9.3E-1,8.E-1,1.E0);
#81=COLOUR_RGB('',9.3E-1,9.3E-1,0.E0);
#82=COLOUR_RGB('',9.3E-1,1.E0,9.3E-1);
#83=COLOUR_RGB('',9.3E-1,1.E0,1.E0);
#84=DRAUGHTING_PRE_DEFINED_COLOUR('red');
#85=COLOUR_RGB('',1.E0,0.E0,2.7E-1);
#86=COLOUR_RGB('',1.E0,0.E0,4.7E-1);
#87=DRAUGHTING_PRE_DEFINED_COLOUR('magenta');
#88=COLOUR_RGB('',1.E0,7.E-2,7.E-2);
#89=COLOUR_RGB('',1.E0,2.E-1,1.E0);
#90=COLOUR_RGB('',1.E0,2.7E-1,0.E0);
#91=COLOUR_RGB('',1.E0,2.7E-1,2.7E-1);
#92=COLOUR_RGB('',1.E0,4.E-1,1.E0);
#93=COLOUR_RGB('',1.E0,4.7E-1,0.E0);
#94=COLOUR_RGB('',1.E0,4.7E-1,4.7E-1);
#95=COLOUR_RGB('',1.E0,4.7E-1,5.3E-1);
#96=COLOUR_RGB('',1.E0,6.E-1,1.E0);
#97=COLOUR_RGB('',1.E0,6.7E-1,0.E0);
#98=COLOUR_RGB('',1.E0,6.7E-1,6.7E-1);
#99=COLOUR_RGB('',1.E0,7.3E-1,5.3E-1);
#100=COLOUR_RGB('',1.E0,7.3E-1,6.E-1);
#101=COLOUR_RGB('',1.E0,8.E-1,8.E-1);
#102=COLOUR_RGB('',1.E0,8.E-1,1.E0);
#103=COLOUR_RGB('',1.E0,8.7E-1,0.E0);
#104=COLOUR_RGB('',1.E0,9.3E-1,9.3E-1);
#105=COLOUR_RGB('',1.E0,9.3E-1,1.E0);
#106=DRAUGHTING_PRE_DEFINED_COLOUR('yellow');
#107=COLOUR_RGB('',1.E0,1.E0,1.3E-1);
#108=COLOUR_RGB('',1.E0,1.E0,3.3E-1);
#109=COLOUR_RGB('',1.E0,1.E0,5.3E-1);
#110=COLOUR_RGB('',1.E0,1.E0,7.3E-1);
#111=COLOUR_RGB('',1.E0,1.E0,9.3E-1);
#112=DIRECTION('',(0.E0,0.E0,-1.E0));
#113=VECTOR('',#112,2.E0);
#114=CARTESIAN_POINT('',(-1.25E0,0.E0,0.E0));
#115=LINE('',#114,#113);
#116=DIRECTION('',(0.E0,1.E0,0.E0));
#117=VECTOR('',#116,2.5E-1);
#118=CARTESIAN_POINT('',(-1.25E0,0.E0,-2.E0));
#119=LINE('',#118,#117);
#120=DIRECTION('',(0.E0,8.137334712067E-1,5.812381937191E-1));
#121=VECTOR('',#120,2.150581316761E0);
#122=CARTESIAN_POINT('',(-1.25E0,2.5E-1,-2.E0));
#123=LINE('',#122,#121);
#124=DIRECTION('',(0.E0,0.E0,1.E0));
#125=VECTOR('',#124,7.5E-1);
#126=CARTESIAN_POINT('',(-1.25E0,2.E0,-7.5E-1));
#127=LINE('',#126,#125);
#128=DIRECTION('',(0.E0,-1.E0,0.E0));
#129=VECTOR('',#128,2.E0);
#130=CARTESIAN_POINT('',(-1.25E0,2.E0,0.E0));
#131=LINE('',#130,#129);
#132=DIRECTION('',(1.E0,0.E0,0.E0));
#133=VECTOR('',#132,2.5E0);
#134=CARTESIAN_POINT('',(-1.25E0,0.E0,0.E0));
#135=LINE('',#134,#133);
#136=CARTESIAN_POINT('',(9.37E-1,0.E0,-4.4E-1));
#137=DIRECTION('',(0.E0,-1.E0,0.E0));
#138=DIRECTION('',(1.E0,0.E0,0.E0));
#139=AXIS2_PLACEMENT_3D('',#136,#137,#138);
#141=CARTESIAN_POINT('',(9.37E-1,0.E0,-4.4E-1));
#142=DIRECTION('',(0.E0,-1.E0,0.E0));
#143=DIRECTION('',(-1.E0,0.E0,0.E0));
#144=AXIS2_PLACEMENT_3D('',#141,#142,#143);
#146=CARTESIAN_POINT('',(-9.38E-1,0.E0,-4.4E-1));
#147=DIRECTION('',(0.E0,-1.E0,0.E0));
#148=DIRECTION('',(1.E0,0.E0,0.E0));
#149=AXIS2_PLACEMENT_3D('',#146,#147,#148);
#151=CARTESIAN_POINT('',(-9.38E-1,0.E0,-4.4E-1));
#152=DIRECTION('',(0.E0,-1.E0,0.E0));
#153=DIRECTION('',(-1.E0,0.E0,0.E0));
#154=AXIS2_PLACEMENT_3D('',#151,#152,#153);
#156=DIRECTION('',(1.E0,0.E0,0.E0));
#157=VECTOR('',#156,2.5E0);
#158=CARTESIAN_POINT('',(-1.25E0,2.E0,0.E0));
#159=LINE('',#158,#157);
#160=CARTESIAN_POINT('',(0.E0,1.E0,0.E0));
#161=DIRECTION('',(0.E0,0.E0,1.E0));
#162=DIRECTION('',(0.E0,1.E0,0.E0));
#163=AXIS2_PLACEMENT_3D('',#160,#161,#162);
#165=CARTESIAN_POINT('',(0.E0,1.E0,0.E0));
#166=DIRECTION('',(0.E0,0.E0,1.E0));
#167=DIRECTION('',(0.E0,-1.E0,0.E0));
#168=AXIS2_PLACEMENT_3D('',#165,#166,#167);
#170=DIRECTION('',(1.E0,0.E0,0.E0));
#171=VECTOR('',#170,2.5E0);
#172=CARTESIAN_POINT('',(-1.25E0,2.E0,-7.5E-1));
#173=LINE('',#172,#171);
#174=CARTESIAN_POINT('',(9.37E-1,2.E0,-4.4E-1));
#175=DIRECTION('',(0.E0,-1.E0,0.E0));
#176=DIRECTION('',(1.E0,0.E0,0.E0));
#177=AXIS2_PLACEMENT_3D('',#174,#175,#176);
#179=CARTESIAN_POINT('',(9.37E-1,2.E0,-4.4E-1));
#180=DIRECTION('',(0.E0,-1.E0,0.E0));
#181=DIRECTION('',(-1.E0,0.E0,0.E0));
#182=AXIS2_PLACEMENT_3D('',#179,#180,#181);
#184=CARTESIAN_POINT('',(-9.38E-1,2.E0,-4.4E-1));
#185=DIRECTION('',(0.E0,-1.E0,0.E0));
#186=DIRECTION('',(1.E0,0.E0,0.E0));
#187=AXIS2_PLACEMENT_3D('',#184,#185,#186);
#189=CARTESIAN_POINT('',(-9.38E-1,2.E0,-4.4E-1));
#190=DIRECTION('',(0.E0,-1.E0,0.E0));
#191=DIRECTION('',(-1.E0,0.E0,0.E0));
#192=AXIS2_PLACEMENT_3D('',#189,#190,#191);
#194=DIRECTION('',(1.E0,0.E0,0.E0));
#195=VECTOR('',#194,2.5E0);
#196=CARTESIAN_POINT('',(-1.25E0,2.5E-1,-2.E0));
#197=LINE('',#196,#195);
#198=CARTESIAN_POINT('',(0.E0,1.69E0,-9.714285714286E-1));
#199=CARTESIAN_POINT('',(-8.131727983645E-2,1.69E0,-9.714285714286E-1));
#200=CARTESIAN_POINT('',(-2.130143805746E-1,1.667671045600E0,
-9.873778245711E-1));
#201=CARTESIAN_POINT('',(-3.798263212232E-1,1.581876707199E0,
-1.048659494858E0));
#202=CARTESIAN_POINT('',(-4.914257283848E-1,1.491432126651E0,
-1.113262766678E0));
#203=CARTESIAN_POINT('',(-5.818928393498E-1,1.379816860309E0,
-1.192987956922E0));
#204=CARTESIAN_POINT('',(-6.461643306612E-1,1.254748811126E0,
-1.282322277767E0));
#205=CARTESIAN_POINT('',(-6.766718921134E-1,1.146708129166E0,
-1.359494193453E0));
#206=CARTESIAN_POINT('',(-6.881998406859E-1,1.061639123770E0,
-1.420257768736E0));
#207=CARTESIAN_POINT('',(-6.909000796570E-1,1.E0,-1.464285714286E0));
#208=CARTESIAN_POINT('',(-6.881998406859E-1,9.383608762300E-1,
-1.508313659836E0));
#209=CARTESIAN_POINT('',(-6.766718921134E-1,8.532918708344E-1,
-1.569077235118E0));
#210=CARTESIAN_POINT('',(-6.461643306612E-1,7.452511888742E-1,
-1.646249150804E0));
#211=CARTESIAN_POINT('',(-5.818928393498E-1,6.201831396906E-1,
-1.735583471650E0));
#212=CARTESIAN_POINT('',(-4.914257283848E-1,5.085678733489E-1,
-1.815308661894E0));
#213=CARTESIAN_POINT('',(-3.798263212232E-1,4.181232928015E-1,
-1.879911933713E0));
#214=CARTESIAN_POINT('',(-2.130143805746E-1,3.323289543996E-1,-1.941193604E0));
#215=CARTESIAN_POINT('',(-8.131727983645E-2,3.1E-1,-1.957142857143E0));
#216=CARTESIAN_POINT('',(0.E0,3.1E-1,-1.957142857143E0));
#218=CARTESIAN_POINT('',(0.E0,3.1E-1,-1.957142857143E0));
#219=CARTESIAN_POINT('',(8.131727983645E-2,3.1E-1,-1.957142857143E0));
#220=CARTESIAN_POINT('',(2.130143805746E-1,3.323289543996E-1,-1.941193604E0));
#221=CARTESIAN_POINT('',(3.798263212232E-1,4.181232928015E-1,
-1.879911933713E0));
#222=CARTESIAN_POINT('',(4.914257283848E-1,5.085678733489E-1,
-1.815308661894E0));
#223=CARTESIAN_POINT('',(5.818928393498E-1,6.201831396906E-1,
-1.735583471650E0));
#224=CARTESIAN_POINT('',(6.461643306612E-1,7.452511888742E-1,
-1.646249150804E0));
#225=CARTESIAN_POINT('',(6.766718921134E-1,8.532918708344E-1,
-1.569077235118E0));
#226=CARTESIAN_POINT('',(6.881998406859E-1,9.383608762300E-1,
-1.508313659836E0));
#227=CARTESIAN_POINT('',(6.909000796570E-1,1.E0,-1.464285714286E0));
#228=CARTESIAN_POINT('',(6.881998406859E-1,1.061639123770E0,-1.420257768736E0));
#229=CARTESIAN_POINT('',(6.766718921134E-1,1.146708129166E0,-1.359494193453E0));
#230=CARTESIAN_POINT('',(6.461643306612E-1,1.254748811126E0,-1.282322277767E0));
#231=CARTESIAN_POINT('',(5.818928393498E-1,1.379816860309E0,-1.192987956922E0));
#232=CARTESIAN_POINT('',(4.914257283848E-1,1.491432126651E0,-1.113262766678E0));
#233=CARTESIAN_POINT('',(3.798263212232E-1,1.581876707199E0,-1.048659494858E0));
#234=CARTESIAN_POINT('',(2.130143805746E-1,1.667671045600E0,
-9.873778245711E-1));
#235=CARTESIAN_POINT('',(8.131727983645E-2,1.69E0,-9.714285714286E-1));
#236=CARTESIAN_POINT('',(0.E0,1.69E0,-9.714285714286E-1));
#238=DIRECTION('',(1.E0,0.E0,0.E0));
#239=VECTOR('',#238,2.5E0);
#240=CARTESIAN_POINT('',(-1.25E0,0.E0,-2.E0));
#241=LINE('',#240,#239);
#242=DIRECTION('',(0.E0,0.E0,-1.E0));
#243=VECTOR('',#242,2.E0);
#244=CARTESIAN_POINT('',(1.25E0,0.E0,0.E0));
#245=LINE('',#244,#243);
#246=DIRECTION('',(0.E0,-1.E0,0.E0));
#247=VECTOR('',#246,2.E0);
#248=CARTESIAN_POINT('',(1.25E0,2.E0,0.E0));
#249=LINE('',#248,#247);
#250=DIRECTION('',(0.E0,0.E0,1.E0));
#251=VECTOR('',#250,7.5E-1);
#252=CARTESIAN_POINT('',(1.25E0,2.E0,-7.5E-1));
#253=LINE('',#252,#251);
#254=DIRECTION('',(0.E0,8.137334712067E-1,5.812381937191E-1));
#255=VECTOR('',#254,2.150581316761E0);
#256=CARTESIAN_POINT('',(1.25E0,2.5E-1,-2.E0));
#257=LINE('',#256,#255);
#258=DIRECTION('',(0.E0,1.E0,0.E0));
#259=VECTOR('',#258,2.5E-1);
#260=CARTESIAN_POINT('',(1.25E0,0.E0,-2.E0));
#261=LINE('',#260,#259);
#262=DIRECTION('',(0.E0,0.E0,1.E0));
#263=VECTOR('',#262,1.614285714286E-1);
#264=CARTESIAN_POINT('',(0.E0,1.69E0,-9.714285714286E-1));
#265=LINE('',#264,#263);
#266=DIRECTION('',(0.E0,0.E0,1.E0));
#267=VECTOR('',#266,1.147142857143E0);
#268=CARTESIAN_POINT('',(0.E0,3.1E-1,-1.957142857143E0));
#269=LINE('',#268,#267);
#270=CARTESIAN_POINT('',(0.E0,1.63E0,-8.1E-1));
#271=DIRECTION('',(1.E0,0.E0,0.E0));
#272=DIRECTION('',(0.E0,1.E0,0.E0));
#273=AXIS2_PLACEMENT_3D('',#270,#271,#272);
#275=CARTESIAN_POINT('',(0.E0,3.7E-1,-8.1E-1));
#276=DIRECTION('',(-1.E0,0.E0,0.E0));
#277=DIRECTION('',(0.E0,-1.E0,0.E0));
#278=AXIS2_PLACEMENT_3D('',#275,#276,#277);
#280=CARTESIAN_POINT('',(0.E0,1.E0,-8.1E-1));
#281=DIRECTION('',(0.E0,0.E0,-1.E0));
#282=DIRECTION('',(0.E0,1.E0,0.E0));
#283=AXIS2_PLACEMENT_3D('',#280,#281,#282);
#285=CARTESIAN_POINT('',(0.E0,1.E0,-8.1E-1));
#286=DIRECTION('',(0.E0,0.E0,1.E0));
#287=DIRECTION('',(0.E0,1.E0,0.E0));
#288=AXIS2_PLACEMENT_3D('',#285,#286,#287);
#290=CARTESIAN_POINT('',(0.E0,1.E0,-7.5E-1));
#291=DIRECTION('',(0.E0,0.E0,-1.E0));
#292=DIRECTION('',(0.E0,1.E0,0.E0));
#293=AXIS2_PLACEMENT_3D('',#290,#291,#292);
#295=CARTESIAN_POINT('',(0.E0,1.E0,-7.5E-1));
#296=DIRECTION('',(0.E0,0.E0,1.E0));
#297=DIRECTION('',(0.E0,1.E0,0.E0));
#298=AXIS2_PLACEMENT_3D('',#295,#296,#297);
#300=CARTESIAN_POINT('',(0.E0,1.E0,-7.5E-1));
#301=DIRECTION('',(0.E0,0.E0,1.E0));
#302=DIRECTION('',(0.E0,1.E0,0.E0));
#303=AXIS2_PLACEMENT_3D('',#300,#301,#302);
#305=DIRECTION('',(0.E0,0.E0,1.E0));
#306=VECTOR('',#305,7.5E-1);
#307=CARTESIAN_POINT('',(0.E0,3.72E-1,-7.5E-1));
#308=LINE('',#307,#306);
#309=CARTESIAN_POINT('',(0.E0,1.E0,-7.5E-1));
#310=DIRECTION('',(0.E0,0.E0,-1.E0));
#311=DIRECTION('',(0.E0,1.E0,0.E0));
#312=AXIS2_PLACEMENT_3D('',#309,#310,#311);
#314=DIRECTION('',(0.E0,0.E0,1.E0));
#315=VECTOR('',#314,7.5E-1);
#316=CARTESIAN_POINT('',(0.E0,1.628E0,-7.5E-1));
#317=LINE('',#316,#315);
#318=DIRECTION('',(0.E0,-1.E0,0.E0));
#319=VECTOR('',#318,2.E0);
#320=CARTESIAN_POINT('',(1.14E0,2.E0,-4.4E-1));
#321=LINE('',#320,#319);
#322=DIRECTION('',(0.E0,-1.E0,0.E0));
#323=VECTOR('',#322,2.E0);
#324=CARTESIAN_POINT('',(7.34E-1,2.E0,-4.4E-1));
#325=LINE('',#324,#323);
#326=DIRECTION('',(0.E0,-1.E0,0.E0));
#327=VECTOR('',#326,2.E0);
#328=CARTESIAN_POINT('',(-7.35E-1,2.E0,-4.4E-1));
#329=LINE('',#328,#327);
#330=DIRECTION('',(0.E0,-1.E0,0.E0));
#331=VECTOR('',#330,2.E0);
#332=CARTESIAN_POINT('',(-1.141E0,2.E0,-4.4E-1));
#333=LINE('',#332,#331);
#334=CARTESIAN_POINT('',(-1.25E0,0.E0,0.E0));
#335=CARTESIAN_POINT('',(-1.25E0,0.E0,-2.E0));
#336=VERTEX_POINT('',#334);
#337=VERTEX_POINT('',#335);
#338=CARTESIAN_POINT('',(-1.25E0,2.5E-1,-2.E0));
#339=VERTEX_POINT('',#338);
#340=CARTESIAN_POINT('',(-1.25E0,2.E0,-7.5E-1));
#341=VERTEX_POINT('',#340);
#342=CARTESIAN_POINT('',(-1.25E0,2.E0,0.E0));
#343=VERTEX_POINT('',#342);
#344=CARTESIAN_POINT('',(1.25E0,0.E0,0.E0));
#345=CARTESIAN_POINT('',(1.25E0,0.E0,-2.E0));
#346=VERTEX_POINT('',#344);
#347=VERTEX_POINT('',#345);
#348=CARTESIAN_POINT('',(1.25E0,2.5E-1,-2.E0));
#349=VERTEX_POINT('',#348);
#350=CARTESIAN_POINT('',(1.25E0,2.E0,-7.5E-1));
#351=VERTEX_POINT('',#350);
#352=CARTESIAN_POINT('',(1.25E0,2.E0,0.E0));
#353=VERTEX_POINT('',#352);
#354=CARTESIAN_POINT('',(0.E0,1.69E0,-8.1E-1));
#355=CARTESIAN_POINT('',(0.E0,1.63E0,-7.5E-1));
#356=VERTEX_POINT('',#354);
#357=VERTEX_POINT('',#355);
#358=CARTESIAN_POINT('',(0.E0,3.1E-1,-8.1E-1));
#359=CARTESIAN_POINT('',(0.E0,3.7E-1,-7.5E-1));
#360=VERTEX_POINT('',#358);
#361=VERTEX_POINT('',#359);
#362=CARTESIAN_POINT('',(0.E0,1.628E0,-7.5E-1));
#363=CARTESIAN_POINT('',(0.E0,3.72E-1,-7.5E-1));
#364=VERTEX_POINT('',#362);
#365=VERTEX_POINT('',#363);
#366=VERTEX_POINT('',#198);
#367=VERTEX_POINT('',#216);
#368=CARTESIAN_POINT('',(0.E0,1.628E0,0.E0));
#369=CARTESIAN_POINT('',(0.E0,3.72E-1,0.E0));
#370=VERTEX_POINT('',#368);
#371=VERTEX_POINT('',#369);
#372=CARTESIAN_POINT('',(1.14E0,0.E0,-4.4E-1));
#373=CARTESIAN_POINT('',(7.34E-1,0.E0,-4.4E-1));
#374=VERTEX_POINT('',#372);
#375=VERTEX_POINT('',#373);
#376=CARTESIAN_POINT('',(1.14E0,2.E0,-4.4E-1));
#377=CARTESIAN_POINT('',(7.34E-1,2.E0,-4.4E-1));
#378=VERTEX_POINT('',#376);
#379=VERTEX_POINT('',#377);
#380=CARTESIAN_POINT('',(-7.35E-1,0.E0,-4.4E-1));
#381=CARTESIAN_POINT('',(-1.141E0,0.E0,-4.4E-1));
#382=VERTEX_POINT('',#380);
#383=VERTEX_POINT('',#381);
#384=CARTESIAN_POINT('',(-7.35E-1,2.E0,-4.4E-1));
#385=CARTESIAN_POINT('',(-1.141E0,2.E0,-4.4E-1));
#386=VERTEX_POINT('',#384);
#387=VERTEX_POINT('',#385);
#388=CARTESIAN_POINT('',(-1.25E0,0.E0,0.E0));
#389=DIRECTION('',(1.E0,0.E0,0.E0));
#390=DIRECTION('',(0.E0,0.E0,-1.E0));
#391=AXIS2_PLACEMENT_3D('',#388,#389,#390);
#392=PLANE('',#391);
#394=ORIENTED_EDGE('',*,*,#393,.T.);
#396=ORIENTED_EDGE('',*,*,#395,.T.);
#398=ORIENTED_EDGE('',*,*,#397,.T.);
#400=ORIENTED_EDGE('',*,*,#399,.T.);
#402=ORIENTED_EDGE('',*,*,#401,.T.);
#403=EDGE_LOOP('',(#394,#396,#398,#400,#402));
#404=FACE_OUTER_BOUND('',#403,.F.);
#405=ADVANCED_FACE('',(#404),#392,.F.);
#406=CARTESIAN_POINT('',(-1.25E0,0.E0,0.E0));
#407=DIRECTION('',(0.E0,-1.E0,0.E0));
#408=DIRECTION('',(0.E0,0.E0,-1.E0));
#409=AXIS2_PLACEMENT_3D('',#406,#407,#408);
#410=PLANE('',#409);
#411=ORIENTED_EDGE('',*,*,#393,.F.);
#413=ORIENTED_EDGE('',*,*,#412,.T.);
#415=ORIENTED_EDGE('',*,*,#414,.T.);
#417=ORIENTED_EDGE('',*,*,#416,.F.);
#418=EDGE_LOOP('',(#411,#413,#415,#417));
#419=FACE_OUTER_BOUND('',#418,.F.);
#421=ORIENTED_EDGE('',*,*,#420,.T.);
#423=ORIENTED_EDGE('',*,*,#422,.T.);
#424=EDGE_LOOP('',(#421,#423));
#425=FACE_BOUND('',#424,.F.);
#427=ORIENTED_EDGE('',*,*,#426,.T.);
#429=ORIENTED_EDGE('',*,*,#428,.T.);
#430=EDGE_LOOP('',(#427,#429));
#431=FACE_BOUND('',#430,.F.);
#432=ADVANCED_FACE('',(#419,#425,#431),#410,.T.);
#433=CARTESIAN_POINT('',(-1.25E0,2.E0,0.E0));
#434=DIRECTION('',(0.E0,0.E0,1.E0));
#435=DIRECTION('',(0.E0,-1.E0,0.E0));
#436=AXIS2_PLACEMENT_3D('',#433,#434,#435);
#437=PLANE('',#436);
#438=ORIENTED_EDGE('',*,*,#401,.F.);
#440=ORIENTED_EDGE('',*,*,#439,.T.);
#442=ORIENTED_EDGE('',*,*,#441,.T.);
#443=ORIENTED_EDGE('',*,*,#412,.F.);
#444=EDGE_LOOP('',(#438,#440,#442,#443));
#445=FACE_OUTER_BOUND('',#444,.F.);
#447=ORIENTED_EDGE('',*,*,#446,.T.);
#449=ORIENTED_EDGE('',*,*,#448,.T.);
#450=EDGE_LOOP('',(#447,#449));
#451=FACE_BOUND('',#450,.F.);
#452=ADVANCED_FACE('',(#445,#451),#437,.T.);
#453=CARTESIAN_POINT('',(-1.25E0,2.E0,-7.5E-1));
#454=DIRECTION('',(0.E0,1.E0,0.E0));
#455=DIRECTION('',(0.E0,0.E0,1.E0));
#456=AXIS2_PLACEMENT_3D('',#453,#454,#455);
#457=PLANE('',#456);
#458=ORIENTED_EDGE('',*,*,#399,.F.);
#460=ORIENTED_EDGE('',*,*,#459,.T.);
#462=ORIENTED_EDGE('',*,*,#461,.T.);
#463=ORIENTED_EDGE('',*,*,#439,.F.);
#464=EDGE_LOOP('',(#458,#460,#462,#463));
#465=FACE_OUTER_BOUND('',#464,.F.);
#467=ORIENTED_EDGE('',*,*,#466,.F.);
#469=ORIENTED_EDGE('',*,*,#468,.F.);
#470=EDGE_LOOP('',(#467,#469));
#471=FACE_BOUND('',#470,.F.);
#473=ORIENTED_EDGE('',*,*,#472,.F.);
#475=ORIENTED_EDGE('',*,*,#474,.F.);
#476=EDGE_LOOP('',(#473,#475));
#477=FACE_BOUND('',#476,.F.);
#478=ADVANCED_FACE('',(#465,#471,#477),#457,.T.);
#479=CARTESIAN_POINT('',(-1.25E0,2.5E-1,-2.E0));
#480=DIRECTION('',(0.E0,5.812381937191E-1,-8.137334712067E-1));
#481=DIRECTION('',(0.E0,8.137334712067E-1,5.812381937191E-1));
#482=AXIS2_PLACEMENT_3D('',#479,#480,#481);
#483=PLANE('',#482);
#484=ORIENTED_EDGE('',*,*,#397,.F.);
#486=ORIENTED_EDGE('',*,*,#485,.T.);
#488=ORIENTED_EDGE('',*,*,#487,.T.);
#489=ORIENTED_EDGE('',*,*,#459,.F.);
#490=EDGE_LOOP('',(#484,#486,#488,#489));
#491=FACE_OUTER_BOUND('',#490,.F.);
#493=ORIENTED_EDGE('',*,*,#492,.F.);
#495=ORIENTED_EDGE('',*,*,#494,.F.);
#496=EDGE_LOOP('',(#493,#495));
#497=FACE_BOUND('',#496,.F.);
#498=ADVANCED_FACE('',(#491,#497),#483,.T.);
#499=CARTESIAN_POINT('',(-1.25E0,0.E0,-2.E0));
#500=DIRECTION('',(0.E0,0.E0,-1.E0));
#501=DIRECTION('',(0.E0,1.E0,0.E0));
#502=AXIS2_PLACEMENT_3D('',#499,#500,#501);
#503=PLANE('',#502);
#504=ORIENTED_EDGE('',*,*,#395,.F.);
#505=ORIENTED_EDGE('',*,*,#416,.T.);
#507=ORIENTED_EDGE('',*,*,#506,.T.);
#508=ORIENTED_EDGE('',*,*,#485,.F.);
#509=EDGE_LOOP('',(#504,#505,#507,#508));
#510=FACE_OUTER_BOUND('',#509,.F.);
#511=ADVANCED_FACE('',(#510),#503,.T.);
#512=CARTESIAN_POINT('',(1.25E0,0.E0,0.E0));
#513=DIRECTION('',(1.E0,0.E0,0.E0));
#514=DIRECTION('',(0.E0,0.E0,-1.E0));
#515=AXIS2_PLACEMENT_3D('',#512,#513,#514);
#516=PLANE('',#515);
#517=ORIENTED_EDGE('',*,*,#414,.F.);
#518=ORIENTED_EDGE('',*,*,#441,.F.);
#519=ORIENTED_EDGE('',*,*,#461,.F.);
#520=ORIENTED_EDGE('',*,*,#487,.F.);
#521=ORIENTED_EDGE('',*,*,#506,.F.);
#522=EDGE_LOOP('',(#517,#518,#519,#520,#521));
#523=FACE_OUTER_BOUND('',#522,.F.);
#524=ADVANCED_FACE('',(#523),#516,.T.);
#525=CARTESIAN_POINT('',(0.E0,1.E0,-2.1E0));
#526=DIRECTION('',(0.E0,0.E0,1.E0));
#527=DIRECTION('',(0.E0,1.E0,0.E0));
#528=AXIS2_PLACEMENT_3D('',#525,#526,#527);
#529=CYLINDRICAL_SURFACE('',#528,6.9E-1);
#530=ORIENTED_EDGE('',*,*,#492,.T.);
#532=ORIENTED_EDGE('',*,*,#531,.T.);
#534=ORIENTED_EDGE('',*,*,#533,.F.);
#536=ORIENTED_EDGE('',*,*,#535,.F.);
#537=EDGE_LOOP('',(#530,#532,#534,#536));
#538=FACE_OUTER_BOUND('',#537,.F.);
#539=ADVANCED_FACE('',(#538),#529,.F.);
#540=CARTESIAN_POINT('',(0.E0,1.E0,-2.1E0));
#541=DIRECTION('',(0.E0,0.E0,1.E0));
#542=DIRECTION('',(0.E0,1.E0,0.E0));
#543=AXIS2_PLACEMENT_3D('',#540,#541,#542);
#544=CYLINDRICAL_SURFACE('',#543,6.9E-1);
#545=ORIENTED_EDGE('',*,*,#494,.T.);
#546=ORIENTED_EDGE('',*,*,#535,.T.);
#548=ORIENTED_EDGE('',*,*,#547,.T.);
#549=ORIENTED_EDGE('',*,*,#531,.F.);
#550=EDGE_LOOP('',(#545,#546,#548,#549));
#551=FACE_OUTER_BOUND('',#550,.F.);
#552=ADVANCED_FACE('',(#551),#544,.F.);
#553=CARTESIAN_POINT('',(0.E0,1.E0,-8.1E-1));
#554=DIRECTION('',(0.E0,0.E0,1.E0));
#555=DIRECTION('',(0.E0,1.E0,0.E0));
#556=AXIS2_PLACEMENT_3D('',#553,#554,#555);
#557=TOROIDAL_SURFACE('',#556,6.3E-1,6.E-2);
#559=ORIENTED_EDGE('',*,*,#558,.T.);
#561=ORIENTED_EDGE('',*,*,#560,.T.);
#563=ORIENTED_EDGE('',*,*,#562,.F.);
#564=ORIENTED_EDGE('',*,*,#547,.F.);
#565=EDGE_LOOP('',(#559,#561,#563,#564));
#566=FACE_OUTER_BOUND('',#565,.F.);
#567=ADVANCED_FACE('',(#566),#557,.F.);
#568=CARTESIAN_POINT('',(0.E0,1.E0,-8.1E-1));
#569=DIRECTION('',(0.E0,0.E0,1.E0));
#570=DIRECTION('',(0.E0,1.E0,0.E0));
#571=AXIS2_PLACEMENT_3D('',#568,#569,#570);
#572=TOROIDAL_SURFACE('',#571,6.3E-1,6.E-2);
#573=ORIENTED_EDGE('',*,*,#558,.F.);
#574=ORIENTED_EDGE('',*,*,#533,.T.);
#575=ORIENTED_EDGE('',*,*,#562,.T.);
#577=ORIENTED_EDGE('',*,*,#576,.F.);
#578=EDGE_LOOP('',(#573,#574,#575,#577));
#579=FACE_OUTER_BOUND('',#578,.F.);
#580=ADVANCED_FACE('',(#579),#572,.F.);
#581=CARTESIAN_POINT('',(0.E0,1.E0,-7.5E-1));
#582=DIRECTION('',(0.E0,0.E0,1.E0));
#583=DIRECTION('',(0.E0,1.E0,0.E0));
#584=AXIS2_PLACEMENT_3D('',#581,#582,#583);
#585=PLANE('',#584);
#586=ORIENTED_EDGE('',*,*,#560,.F.);
#587=ORIENTED_EDGE('',*,*,#576,.T.);
#588=EDGE_LOOP('',(#586,#587));
#589=FACE_OUTER_BOUND('',#588,.F.);
#591=ORIENTED_EDGE('',*,*,#590,.F.);
#593=ORIENTED_EDGE('',*,*,#592,.T.);
#594=EDGE_LOOP('',(#591,#593));
#595=FACE_BOUND('',#594,.F.);
#596=ADVANCED_FACE('',(#589,#595),#585,.F.);
#597=CARTESIAN_POINT('',(0.E0,1.E0,-2.1E0));
#598=DIRECTION('',(0.E0,0.E0,1.E0));
#599=DIRECTION('',(0.E0,1.E0,0.E0));
#600=AXIS2_PLACEMENT_3D('',#597,#598,#599);
#601=CYLINDRICAL_SURFACE('',#600,6.28E-1);
#602=ORIENTED_EDGE('',*,*,#446,.F.);
#604=ORIENTED_EDGE('',*,*,#603,.F.);
#605=ORIENTED_EDGE('',*,*,#590,.T.);
#607=ORIENTED_EDGE('',*,*,#606,.T.);
#608=EDGE_LOOP('',(#602,#604,#605,#607));
#609=FACE_OUTER_BOUND('',#608,.F.);
#610=ADVANCED_FACE('',(#609),#601,.F.);
#611=CARTESIAN_POINT('',(0.E0,1.E0,-2.1E0));
#612=DIRECTION('',(0.E0,0.E0,1.E0));
#613=DIRECTION('',(0.E0,1.E0,0.E0));
#614=AXIS2_PLACEMENT_3D('',#611,#612,#613);
#615=CYLINDRICAL_SURFACE('',#614,6.28E-1);
#616=ORIENTED_EDGE('',*,*,#448,.F.);
#617=ORIENTED_EDGE('',*,*,#606,.F.);
#618=ORIENTED_EDGE('',*,*,#592,.F.);
#619=ORIENTED_EDGE('',*,*,#603,.T.);
#620=EDGE_LOOP('',(#616,#617,#618,#619));
#621=FACE_OUTER_BOUND('',#620,.F.);
#622=ADVANCED_FACE('',(#621),#615,.F.);
#623=CARTESIAN_POINT('',(9.37E-1,2.E0,-4.4E-1));
#624=DIRECTION('',(0.E0,-1.E0,0.E0));
#625=DIRECTION('',(1.E0,0.E0,0.E0));
#626=AXIS2_PLACEMENT_3D('',#623,#624,#625);
#627=CYLINDRICAL_SURFACE('',#626,2.03E-1);
#628=ORIENTED_EDGE('',*,*,#420,.F.);
#630=ORIENTED_EDGE('',*,*,#629,.F.);
#631=ORIENTED_EDGE('',*,*,#466,.T.);
#633=ORIENTED_EDGE('',*,*,#632,.T.);
#634=EDGE_LOOP('',(#628,#630,#631,#633));
#635=FACE_OUTER_BOUND('',#634,.F.);
#636=ADVANCED_FACE('',(#635),#627,.F.);
#637=CARTESIAN_POINT('',(9.37E-1,2.E0,-4.4E-1));
#638=DIRECTION('',(0.E0,-1.E0,0.E0));
#639=DIRECTION('',(1.E0,0.E0,0.E0));
#640=AXIS2_PLACEMENT_3D('',#637,#638,#639);
#641=CYLINDRICAL_SURFACE('',#640,2.03E-1);
#642=ORIENTED_EDGE('',*,*,#422,.F.);
#643=ORIENTED_EDGE('',*,*,#632,.F.);
#644=ORIENTED_EDGE('',*,*,#468,.T.);
#645=ORIENTED_EDGE('',*,*,#629,.T.);
#646=EDGE_LOOP('',(#642,#643,#644,#645));
#647=FACE_OUTER_BOUND('',#646,.F.);
#648=ADVANCED_FACE('',(#647),#641,.F.);
#649=CARTESIAN_POINT('',(-9.38E-1,2.E0,-4.4E-1));
#650=DIRECTION('',(0.E0,-1.E0,0.E0));
#651=DIRECTION('',(1.E0,0.E0,0.E0));
#652=AXIS2_PLACEMENT_3D('',#649,#650,#651);
#653=CYLINDRICAL_SURFACE('',#652,2.03E-1);
#654=ORIENTED_EDGE('',*,*,#426,.F.);
#656=ORIENTED_EDGE('',*,*,#655,.F.);
#657=ORIENTED_EDGE('',*,*,#472,.T.);
#659=ORIENTED_EDGE('',*,*,#658,.T.);
#660=EDGE_LOOP('',(#654,#656,#657,#659));
#661=FACE_OUTER_BOUND('',#660,.F.);
#662=ADVANCED_FACE('',(#661),#653,.F.);
#663=CARTESIAN_POINT('',(-9.38E-1,2.E0,-4.4E-1));
#664=DIRECTION('',(0.E0,-1.E0,0.E0));
#665=DIRECTION('',(1.E0,0.E0,0.E0));
#666=AXIS2_PLACEMENT_3D('',#663,#664,#665);
#667=CYLINDRICAL_SURFACE('',#666,2.03E-1);
#668=ORIENTED_EDGE('',*,*,#428,.F.);
#669=ORIENTED_EDGE('',*,*,#658,.F.);
#670=ORIENTED_EDGE('',*,*,#474,.T.);
#671=ORIENTED_EDGE('',*,*,#655,.T.);
#672=EDGE_LOOP('',(#668,#669,#670,#671));
#673=FACE_OUTER_BOUND('',#672,.F.);
#674=ADVANCED_FACE('',(#673),#667,.F.);
#675=CLOSED_SHELL('',(#405,#432,#452,#478,#498,#511,#524,#539,#552,#567,#580,
#596,#610,#622,#636,#648,#662,#674));
#676=MANIFOLD_SOLID_BREP('',#675);
#677=DIMENSIONAL_EXPONENTS(1.E0,0.E0,0.E0,0.E0,0.E0,0.E0,0.E0);
#678=(LENGTH_UNIT()NAMED_UNIT(*)SI_UNIT(.MILLI.,.METRE.));
#679=LENGTH_MEASURE_WITH_UNIT(LENGTH_MEASURE(2.54E1),#678);
#680=(CONVERSION_BASED_UNIT('INCH',#679)LENGTH_UNIT()NAMED_UNIT(#677));
#681=DIMENSIONAL_EXPONENTS(0.E0,0.E0,0.E0,0.E0,0.E0,0.E0,0.E0);
#682=(NAMED_UNIT(*)PLANE_ANGLE_UNIT()SI_UNIT($,.RADIAN.));
#683=PLANE_ANGLE_MEASURE_WITH_UNIT(PLANE_ANGLE_MEASURE(1.745329251994E-2),#682);
#684=(CONVERSION_BASED_UNIT('DEGREE',#683)NAMED_UNIT(#681)PLANE_ANGLE_UNIT());
#685=(NAMED_UNIT(*)SI_UNIT($,.STERADIAN.)SOLID_ANGLE_UNIT());
#686=UNCERTAINTY_MEASURE_WITH_UNIT(LENGTH_MEASURE(3.774766220947E-4),#680,
'distance_accuracy_value',
'Maximum model space distance between geometric entities at asserted connectivities');
#687=(GEOMETRIC_REPRESENTATION_CONTEXT(3)GLOBAL_UNCERTAINTY_ASSIGNED_CONTEXT((
#686))GLOBAL_UNIT_ASSIGNED_CONTEXT((#680,#684,#685))REPRESENTATION_CONTEXT
('ID1','3'));
#689=APPLICATION_CONTEXT('automotive_design');
#690=APPLICATION_PROTOCOL_DEFINITION('draft international standard',
'automotive_design',1998,#689);
#691=PRODUCT_DEFINITION_CONTEXT('part definition',#689,'design');
#692=PRODUCT_CONTEXT('',#689,'mechanical');
#693=PRODUCT('ILC64031300','ILC64031300','NOT SPECIFIED',(#692));
#694=PRODUCT_DEFINITION_FORMATION_WITH_SPECIFIED_SOURCE('','LAST_VERSION',#693,
.MADE.);
#698=PRODUCT_TYPE('part','',(#693));
#140=CIRCLE('',#139,2.03E-1);
#145=CIRCLE('',#144,2.03E-1);
#150=CIRCLE('',#149,2.03E-1);
#155=CIRCLE('',#154,2.03E-1);
#164=CIRCLE('',#163,6.28E-1);
#169=CIRCLE('',#168,6.28E-1);
#178=CIRCLE('',#177,2.03E-1);
#183=CIRCLE('',#182,2.03E-1);
#188=CIRCLE('',#187,2.03E-1);
#193=CIRCLE('',#192,2.03E-1);
#217=B_SPLINE_CURVE_WITH_KNOTS('',3,(#198,#199,#200,#201,#202,#203,#204,#205,
#206,#207,#208,#209,#210,#211,#212,#213,#214,#215,#216),.UNSPECIFIED.,.F.,.F.,
(4,1,1,1,1,1,1,1,1,1,1,1,1,1,1,1,4),(0.E0,1.25E-1,1.875E-1,2.5E-1,3.125E-1,
3.75E-1,4.375E-1,4.6875E-1,5.E-1,5.3125E-1,5.625E-1,6.25E-1,6.875E-1,7.5E-1,
8.125E-1,8.75E-1,1.E0),.UNSPECIFIED.);
#237=B_SPLINE_CURVE_WITH_KNOTS('',3,(#218,#219,#220,#221,#222,#223,#224,#225,
#226,#227,#228,#229,#230,#231,#232,#233,#234,#235,#236),.UNSPECIFIED.,.F.,.F.,
(4,1,1,1,1,1,1,1,1,1,1,1,1,1,1,1,4),(0.E0,1.25E-1,1.875E-1,2.5E-1,3.125E-1,
3.75E-1,4.375E-1,4.6875E-1,5.E-1,5.3125E-1,5.625E-1,6.25E-1,6.875E-1,7.5E-1,
8.125E-1,8.75E-1,1.E0),.UNSPECIFIED.);
#274=CIRCLE('',#273,6.E-2);
#279=CIRCLE('',#278,6.E-2);
#284=CIRCLE('',#283,6.9E-1);
#289=CIRCLE('',#288,6.9E-1);
#294=CIRCLE('',#293,6.3E-1);
#299=CIRCLE('',#298,6.3E-1);
#304=CIRCLE('',#303,6.28E-1);
#313=CIRCLE('',#312,6.28E-1);
#393=EDGE_CURVE('',#336,#337,#115,.T.);
#395=EDGE_CURVE('',#337,#339,#119,.T.);
#397=EDGE_CURVE('',#339,#341,#123,.T.);
#399=EDGE_CURVE('',#341,#343,#127,.T.);
#401=EDGE_CURVE('',#343,#336,#131,.T.);
#412=EDGE_CURVE('',#336,#346,#135,.T.);
#414=EDGE_CURVE('',#346,#347,#245,.T.);
#416=EDGE_CURVE('',#337,#347,#241,.T.);
#420=EDGE_CURVE('',#374,#375,#140,.T.);
#422=EDGE_CURVE('',#375,#374,#145,.T.);
#426=EDGE_CURVE('',#382,#383,#150,.T.);
#428=EDGE_CURVE('',#383,#382,#155,.T.);
#439=EDGE_CURVE('',#343,#353,#159,.T.);
#441=EDGE_CURVE('',#353,#346,#249,.T.);
#446=EDGE_CURVE('',#370,#371,#164,.T.);
#448=EDGE_CURVE('',#371,#370,#169,.T.);
#459=EDGE_CURVE('',#341,#351,#173,.T.);
#461=EDGE_CURVE('',#351,#353,#253,.T.);
#466=EDGE_CURVE('',#378,#379,#178,.T.);
#468=EDGE_CURVE('',#379,#378,#183,.T.);
#472=EDGE_CURVE('',#386,#387,#188,.T.);
#474=EDGE_CURVE('',#387,#386,#193,.T.);
#485=EDGE_CURVE('',#339,#349,#197,.T.);
#487=EDGE_CURVE('',#349,#351,#257,.T.);
#492=EDGE_CURVE('',#366,#367,#217,.T.);
#494=EDGE_CURVE('',#367,#366,#237,.T.);
#506=EDGE_CURVE('',#347,#349,#261,.T.);
#531=EDGE_CURVE('',#367,#360,#269,.T.);
#533=EDGE_CURVE('',#356,#360,#289,.T.);
#535=EDGE_CURVE('',#366,#356,#265,.T.);
#547=EDGE_CURVE('',#356,#360,#284,.T.);
#558=EDGE_CURVE('',#356,#357,#274,.T.);
#560=EDGE_CURVE('',#357,#361,#294,.T.);
#562=EDGE_CURVE('',#360,#361,#279,.T.);
#576=EDGE_CURVE('',#357,#361,#299,.T.);
#590=EDGE_CURVE('',#364,#365,#304,.T.);
#592=EDGE_CURVE('',#364,#365,#313,.T.);
#603=EDGE_CURVE('',#364,#370,#317,.T.);
#606=EDGE_CURVE('',#365,#371,#308,.T.);
#629=EDGE_CURVE('',#378,#374,#321,.T.);
#632=EDGE_CURVE('',#379,#375,#325,.T.);
#655=EDGE_CURVE('',#386,#382,#329,.T.);
#658=EDGE_CURVE('',#387,#383,#333,.T.);
#688=ADVANCED_BREP_SHAPE_REPRESENTATION('',(#676),#687);
#695=PRODUCT_DEFINITION('part definition','',#694,#691);
#696=PRODUCT_DEFINITION_SHAPE('','SHAPE FOR ILC64031300.',#695);
#697=SHAPE_DEFINITION_REPRESENTATION(#696,#688);
ENDSEC;
END-ISO-10303-21;
