ISO-10303-21;
HEADER;
FILE_DESCRIPTION((''),'2;1');
FILE_NAME('ILC64043101','2005-07-25T',('KR'),(''),
'PRO/ENGINEER BY PARAMETRIC TECHNOLOGY CORPORATION, 2004290',
'PRO/ENGINEER BY PARAMETRIC TECHNOLOGY CORPORATION, 2004290','');
FILE_SCHEMA(('AUTOMOTIVE_DESIGN_CC2 { 1 2 10303 214 -1 1 5 2 }'));
ENDSEC;
DATA;
#1=COLOUR_RGB('',0.E0,0.E0,4.7E-1);
#2=COLOUR_RGB('',0.E0,0.E0,6.E-1);
#3=COLOUR_RGB('',0.E0,0.E0,8.E-1);
#4=DRAUGHTING_PRE_DEFINED_COLOUR('blue');
#5=COLOUR_RGB('',0.E0,2.E-1,1.E0);
#6=COLOUR_RGB('',0.E0,3.3E-1,0.E0);
#7=COLOUR_RGB('',0.E0,3.3E-1,3.3E-1);
#8=COLOUR_RGB('',0.E0,4.E-1,0.E0);
#9=COLOUR_RGB('',0.E0,4.E-1,4.E-1);
#10=COLOUR_RGB('',0.E0,4.E-1,1.E0);
#11=COLOUR_RGB('',0.E0,5.3E-1,5.3E-1);
#12=COLOUR_RGB('',0.E0,6.E-1,0.E0);
#13=COLOUR_RGB('',0.E0,6.E-1,6.E-1);
#14=COLOUR_RGB('',0.E0,6.E-1,1.E0);
#15=COLOUR_RGB('',0.E0,8.E-1,0.E0);
#16=COLOUR_RGB('',0.E0,8.E-1,8.E-1);
#17=COLOUR_RGB('',0.E0,8.E-1,1.E0);
#18=COLOUR_RGB('',0.E0,9.3E-1,0.E0);
#19=COLOUR_RGB('',0.E0,9.3E-1,9.3E-1);
#20=DRAUGHTING_PRE_DEFINED_COLOUR('green');
#21=COLOUR_RGB('',0.E0,1.E0,2.E-1);
#22=COLOUR_RGB('',0.E0,1.E0,4.E-1);
#23=COLOUR_RGB('',0.E0,1.E0,6.E-1);
#24=COLOUR_RGB('',0.E0,1.E0,8.E-1);
#25=DRAUGHTING_PRE_DEFINED_COLOUR('cyan');
#26=COLOUR_RGB('',7.E-2,7.E-2,1.E0);
#27=COLOUR_RGB('',2.E-1,1.E0,0.E0);
#28=COLOUR_RGB('',2.E-1,1.E0,2.E-1);
#29=COLOUR_RGB('',2.E-1,1.E0,1.E0);
#30=COLOUR_RGB('',2.7E-1,0.E0,4.E-1);
#31=COLOUR_RGB('',2.7E-1,2.7E-1,0.E0);
#32=COLOUR_RGB('',2.7E-1,2.7E-1,1.E0);
#33=COLOUR_RGB('',3.3E-1,0.E0,0.E0);
#34=COLOUR_RGB('',3.3E-1,0.E0,3.3E-1);
#35=COLOUR_RGB('',3.3E-1,0.E0,5.3E-1);
#36=COLOUR_RGB('',4.E-1,0.E0,4.E-1);
#37=COLOUR_RGB('',4.E-1,0.E0,6.7E-1);
#38=COLOUR_RGB('',4.E-1,1.3E-1,0.E0);
#39=COLOUR_RGB('',4.E-1,4.E-1,0.E0);
#40=COLOUR_RGB('',4.E-1,4.E-1,1.E0);
#41=COLOUR_RGB('',4.E-1,1.E0,0.E0);
#42=COLOUR_RGB('',4.E-1,1.E0,4.E-1);
#43=COLOUR_RGB('',4.E-1,1.E0,1.E0);
#44=COLOUR_RGB('',4.7E-1,0.E0,0.E0);
#45=COLOUR_RGB('',4.7E-1,0.E0,8.E-1);
#46=COLOUR_RGB('',4.7E-1,0.E0,8.7E-1);
#47=COLOUR_RGB('',4.7E-1,2.E-1,7.E-2);
#48=COLOUR_RGB('',4.7E-1,4.7E-1,4.7E-1);
#49=COLOUR_RGB('',5.3E-1,0.E0,9.3E-1);
#50=COLOUR_RGB('',5.3E-1,2.7E-1,1.3E-1);
#51=COLOUR_RGB('',5.3E-1,5.3E-1,1.E0);
#52=COLOUR_RGB('',6.E-1,0.E0,6.E-1);
#53=COLOUR_RGB('',6.E-1,2.E-1,1.E0);
#54=COLOUR_RGB('',6.E-1,3.3E-1,2.E-1);
#55=COLOUR_RGB('',6.E-1,6.E-1,0.E0);
#56=COLOUR_RGB('',6.E-1,6.E-1,1.E0);
#57=COLOUR_RGB('',6.E-1,1.E0,6.E-1);
#58=COLOUR_RGB('',6.E-1,1.E0,1.E0);
#59=COLOUR_RGB('',6.7E-1,0.E0,0.E0);
#60=COLOUR_RGB('',6.7E-1,0.E0,5.3E-1);
#61=COLOUR_RGB('',6.7E-1,4.E-1,2.7E-1);
#62=COLOUR_RGB('',6.7E-1,4.E-1,1.E0);
#63=COLOUR_RGB('',6.7E-1,6.7E-1,1.E0);
#64=COLOUR_RGB('',6.7E-1,1.E0,0.E0);
#65=COLOUR_RGB('',7.3E-1,2.7E-1,1.E0);
#66=COLOUR_RGB('',7.3E-1,4.E-1,0.E0);
#67=COLOUR_RGB('',7.3E-1,4.7E-1,3.3E-1);
#68=COLOUR_RGB('',7.3E-1,7.3E-1,7.3E-1);
#69=COLOUR_RGB('',8.E-1,0.E0,8.E-1);
#70=COLOUR_RGB('',8.E-1,5.3E-1,4.E-1);
#71=COLOUR_RGB('',8.E-1,6.E-1,1.E0);
#72=COLOUR_RGB('',8.E-1,8.E-1,0.E0);
#73=COLOUR_RGB('',8.E-1,8.E-1,1.E0);
#74=COLOUR_RGB('',8.E-1,1.E0,8.E-1);
#75=COLOUR_RGB('',8.E-1,1.E0,1.E0);
#76=COLOUR_RGB('',8.7E-1,0.E0,0.E0);
#77=COLOUR_RGB('',8.7E-1,6.E-1,4.7E-1);
#78=COLOUR_RGB('',9.3E-1,0.E0,9.3E-1);
#79=COLOUR_RGB('',9.3E-1,6.7E-1,5.3E-1);
#80=COLOUR_RGB('',9.3E-1,8.E-1,1.E0);
#81=COLOUR_RGB('',9.3E-1,9.3E-1,0.E0);
#82=COLOUR_RGB('',9.3E-1,1.E0,9.3E-1);
#83=COLOUR_RGB('',9.3E-1,1.E0,1.E0);
#84=DRAUGHTING_PRE_DEFINED_COLOUR('red');
#85=COLOUR_RGB('',1.E0,0.E0,2.7E-1);
#86=COLOUR_RGB('',1.E0,0.E0,4.7E-1);
#87=DRAUGHTING_PRE_DEFINED_COLOUR('magenta');
#88=COLOUR_RGB('',1.E0,7.E-2,7.E-2);
#89=COLOUR_RGB('',1.E0,2.E-1,1.E0);
#90=COLOUR_RGB('',1.E0,2.7E-1,0.E0);
#91=COLOUR_RGB('',1.E0,2.7E-1,2.7E-1);
#92=COLOUR_RGB('',1.E0,4.E-1,1.E0);
#93=COLOUR_RGB('',1.E0,4.7E-1,0.E0);
#94=COLOUR_RGB('',1.E0,4.7E-1,4.7E-1);
#95=COLOUR_RGB('',1.E0,4.7E-1,5.3E-1);
#96=COLOUR_RGB('',1.E0,6.E-1,1.E0);
#97=COLOUR_RGB('',1.E0,6.7E-1,0.E0);
#98=COLOUR_RGB('',1.E0,6.7E-1,6.7E-1);
#99=COLOUR_RGB('',1.E0,7.3E-1,5.3E-1);
#100=COLOUR_RGB('',1.E0,7.3E-1,6.E-1);
#101=COLOUR_RGB('',1.E0,8.E-1,8.E-1);
#102=COLOUR_RGB('',1.E0,8.E-1,1.E0);
#103=COLOUR_RGB('',1.E0,8.7E-1,0.E0);
#104=COLOUR_RGB('',1.E0,9.3E-1,9.3E-1);
#105=COLOUR_RGB('',1.E0,9.3E-1,1.E0);
#106=DRAUGHTING_PRE_DEFINED_COLOUR('yellow');
#107=COLOUR_RGB('',1.E0,1.E0,1.3E-1);
#108=COLOUR_RGB('',1.E0,1.E0,3.3E-1);
#109=COLOUR_RGB('',1.E0,1.E0,5.3E-1);
#110=COLOUR_RGB('',1.E0,1.E0,7.3E-1);
#111=COLOUR_RGB('',1.E0,1.E0,9.3E-1);
#112=CARTESIAN_POINT('',(0.E0,0.E0,0.E0));
#113=DIRECTION('',(0.E0,0.E0,-1.E0));
#114=DIRECTION('',(1.E0,0.E0,0.E0));
#115=AXIS2_PLACEMENT_3D('',#112,#113,#114);
#117=CARTESIAN_POINT('',(0.E0,0.E0,0.E0));
#118=DIRECTION('',(0.E0,0.E0,-1.E0));
#119=DIRECTION('',(-1.E0,0.E0,0.E0));
#120=AXIS2_PLACEMENT_3D('',#117,#118,#119);
#122=DIRECTION('',(1.E0,0.E0,0.E0));
#123=VECTOR('',#122,3.607349124108E-1);
#124=CARTESIAN_POINT('',(-1.803674562054E-1,2.562E0,0.E0));
#125=LINE('',#124,#123);
#126=DIRECTION('',(8.660254037844E-1,-5.E-1,0.E0));
#127=VECTOR('',#126,2.461974596216E0);
#128=CARTESIAN_POINT('',(1.803674562054E-1,2.562E0,0.E0));
#129=LINE('',#128,#127);
#130=CARTESIAN_POINT('',(2.0625E0,8.98E-1,0.E0));
#131=DIRECTION('',(0.E0,0.E0,-1.E0));
#132=DIRECTION('',(5.E-1,8.660254037844E-1,0.E0));
#133=AXIS2_PLACEMENT_3D('',#130,#131,#132);
#135=DIRECTION('',(0.E0,-1.E0,0.E0));
#136=VECTOR('',#135,2.201540850913E0);
#137=CARTESIAN_POINT('',(2.5625E0,8.98E-1,0.E0));
#138=LINE('',#137,#136);
#139=CARTESIAN_POINT('',(0.E0,0.E0,0.E0));
#140=DIRECTION('',(0.E0,0.E0,-1.E0));
#141=DIRECTION('',(8.913043478261E-1,-4.534055133612E-1,0.E0));
#142=AXIS2_PLACEMENT_3D('',#139,#140,#141);
#144=DIRECTION('',(0.E0,1.E0,0.E0));
#145=VECTOR('',#144,2.201540850913E0);
#146=CARTESIAN_POINT('',(-2.5625E0,-1.303540850913E0,0.E0));
#147=LINE('',#146,#145);
#148=CARTESIAN_POINT('',(-2.0625E0,8.98E-1,0.E0));
#149=DIRECTION('',(0.E0,0.E0,-1.E0));
#150=DIRECTION('',(-1.E0,0.E0,0.E0));
#151=AXIS2_PLACEMENT_3D('',#148,#149,#150);
#153=DIRECTION('',(8.660254037844E-1,5.E-1,0.E0));
#154=VECTOR('',#153,2.461974596216E0);
#155=CARTESIAN_POINT('',(-2.3125E0,1.331012701892E0,0.E0));
#156=LINE('',#155,#154);
#157=DIRECTION('',(0.E0,0.E0,-1.E0));
#158=VECTOR('',#157,2.4E1);
#159=CARTESIAN_POINT('',(1.5675E0,0.E0,0.E0));
#160=LINE('',#159,#158);
#161=DIRECTION('',(0.E0,0.E0,-1.E0));
#162=VECTOR('',#161,2.4E1);
#163=CARTESIAN_POINT('',(-1.5675E0,0.E0,0.E0));
#164=LINE('',#163,#162);
#165=CARTESIAN_POINT('',(0.E0,0.E0,-2.4E1));
#166=DIRECTION('',(0.E0,0.E0,-1.E0));
#167=DIRECTION('',(1.E0,0.E0,0.E0));
#168=AXIS2_PLACEMENT_3D('',#165,#166,#167);
#170=CARTESIAN_POINT('',(0.E0,0.E0,-2.4E1));
#171=DIRECTION('',(0.E0,0.E0,-1.E0));
#172=DIRECTION('',(-1.E0,0.E0,0.E0));
#173=AXIS2_PLACEMENT_3D('',#170,#171,#172);
#175=DIRECTION('',(1.E0,0.E0,0.E0));
#176=VECTOR('',#175,3.607349124108E-1);
#177=CARTESIAN_POINT('',(-1.803674562054E-1,2.562E0,-2.4E1));
#178=LINE('',#177,#176);
#179=DIRECTION('',(8.660254037844E-1,5.E-1,0.E0));
#180=VECTOR('',#179,2.461974596216E0);
#181=CARTESIAN_POINT('',(-2.3125E0,1.331012701892E0,-2.4E1));
#182=LINE('',#181,#180);
#183=CARTESIAN_POINT('',(-2.0625E0,8.98E-1,-2.4E1));
#184=DIRECTION('',(0.E0,0.E0,-1.E0));
#185=DIRECTION('',(-1.E0,0.E0,0.E0));
#186=AXIS2_PLACEMENT_3D('',#183,#184,#185);
#188=DIRECTION('',(0.E0,1.E0,0.E0));
#189=VECTOR('',#188,2.201540850913E0);
#190=CARTESIAN_POINT('',(-2.5625E0,-1.303540850913E0,-2.4E1));
#191=LINE('',#190,#189);
#192=CARTESIAN_POINT('',(0.E0,0.E0,-2.4E1));
#193=DIRECTION('',(0.E0,0.E0,-1.E0));
#194=DIRECTION('',(8.913043478261E-1,-4.534055133612E-1,0.E0));
#195=AXIS2_PLACEMENT_3D('',#192,#193,#194);
#197=DIRECTION('',(0.E0,-1.E0,0.E0));
#198=VECTOR('',#197,2.201540850913E0);
#199=CARTESIAN_POINT('',(2.5625E0,8.98E-1,-2.4E1));
#200=LINE('',#199,#198);
#201=CARTESIAN_POINT('',(2.0625E0,8.98E-1,-2.4E1));
#202=DIRECTION('',(0.E0,0.E0,-1.E0));
#203=DIRECTION('',(5.E-1,8.660254037844E-1,0.E0));
#204=AXIS2_PLACEMENT_3D('',#201,#202,#203);
#206=DIRECTION('',(8.660254037844E-1,-5.E-1,0.E0));
#207=VECTOR('',#206,2.461974596216E0);
#208=CARTESIAN_POINT('',(1.803674562054E-1,2.562E0,-2.4E1));
#209=LINE('',#208,#207);
#210=DIRECTION('',(0.E0,0.E0,-1.E0));
#211=VECTOR('',#210,2.4E1);
#212=CARTESIAN_POINT('',(1.803674562054E-1,2.562E0,0.E0));
#213=LINE('',#212,#211);
#214=DIRECTION('',(0.E0,0.E0,-1.E0));
#215=VECTOR('',#214,2.4E1);
#216=CARTESIAN_POINT('',(-1.803674562054E-1,2.562E0,0.E0));
#217=LINE('',#216,#215);
#218=DIRECTION('',(0.E0,0.E0,1.E0));
#219=VECTOR('',#218,2.4E1);
#220=CARTESIAN_POINT('',(-2.3125E0,1.331012701892E0,-2.4E1));
#221=LINE('',#220,#219);
#222=DIRECTION('',(0.E0,0.E0,1.E0));
#223=VECTOR('',#222,2.4E1);
#224=CARTESIAN_POINT('',(-2.5625E0,8.98E-1,-2.4E1));
#225=LINE('',#224,#223);
#226=DIRECTION('',(0.E0,0.E0,-1.E0));
#227=VECTOR('',#226,2.4E1);
#228=CARTESIAN_POINT('',(-2.5625E0,-1.303540850913E0,0.E0));
#229=LINE('',#228,#227);
#230=DIRECTION('',(0.E0,0.E0,-1.E0));
#231=VECTOR('',#230,2.4E1);
#232=CARTESIAN_POINT('',(2.5625E0,-1.303540850913E0,0.E0));
#233=LINE('',#232,#231);
#234=DIRECTION('',(0.E0,0.E0,1.E0));
#235=VECTOR('',#234,2.4E1);
#236=CARTESIAN_POINT('',(2.5625E0,8.98E-1,-2.4E1));
#237=LINE('',#236,#235);
#238=DIRECTION('',(0.E0,0.E0,1.E0));
#239=VECTOR('',#238,2.4E1);
#240=CARTESIAN_POINT('',(2.3125E0,1.331012701892E0,-2.4E1));
#241=LINE('',#240,#239);
#242=CARTESIAN_POINT('',(-1.803674562054E-1,2.562E0,0.E0));
#243=CARTESIAN_POINT('',(1.803674562054E-1,2.562E0,0.E0));
#244=VERTEX_POINT('',#242);
#245=VERTEX_POINT('',#243);
#246=CARTESIAN_POINT('',(-2.3125E0,1.331012701892E0,0.E0));
#247=VERTEX_POINT('',#246);
#248=CARTESIAN_POINT('',(-2.5625E0,8.98E-1,0.E0));
#249=VERTEX_POINT('',#248);
#250=CARTESIAN_POINT('',(-2.5625E0,-1.303540850913E0,0.E0));
#251=VERTEX_POINT('',#250);
#252=CARTESIAN_POINT('',(2.5625E0,8.98E-1,0.E0));
#253=CARTESIAN_POINT('',(2.5625E0,-1.303540850913E0,0.E0));
#254=VERTEX_POINT('',#252);
#255=VERTEX_POINT('',#253);
#256=CARTESIAN_POINT('',(2.3125E0,1.331012701892E0,0.E0));
#257=VERTEX_POINT('',#256);
#258=CARTESIAN_POINT('',(-1.803674562054E-1,2.562E0,-2.4E1));
#259=CARTESIAN_POINT('',(1.803674562054E-1,2.562E0,-2.4E1));
#260=VERTEX_POINT('',#258);
#261=VERTEX_POINT('',#259);
#262=CARTESIAN_POINT('',(-2.3125E0,1.331012701892E0,-2.4E1));
#263=VERTEX_POINT('',#262);
#264=CARTESIAN_POINT('',(-2.5625E0,8.98E-1,-2.4E1));
#265=VERTEX_POINT('',#264);
#266=CARTESIAN_POINT('',(-2.5625E0,-1.303540850913E0,-2.4E1));
#267=VERTEX_POINT('',#266);
#268=CARTESIAN_POINT('',(2.5625E0,8.98E-1,-2.4E1));
#269=CARTESIAN_POINT('',(2.5625E0,-1.303540850913E0,-2.4E1));
#270=VERTEX_POINT('',#268);
#271=VERTEX_POINT('',#269);
#272=CARTESIAN_POINT('',(2.3125E0,1.331012701892E0,-2.4E1));
#273=VERTEX_POINT('',#272);
#274=CARTESIAN_POINT('',(1.5675E0,0.E0,0.E0));
#275=CARTESIAN_POINT('',(-1.5675E0,0.E0,0.E0));
#276=VERTEX_POINT('',#274);
#277=VERTEX_POINT('',#275);
#278=CARTESIAN_POINT('',(1.5675E0,0.E0,-2.4E1));
#279=CARTESIAN_POINT('',(-1.5675E0,0.E0,-2.4E1));
#280=VERTEX_POINT('',#278);
#281=VERTEX_POINT('',#279);
#282=CARTESIAN_POINT('',(0.E0,0.E0,0.E0));
#283=DIRECTION('',(0.E0,0.E0,1.E0));
#284=DIRECTION('',(1.E0,0.E0,0.E0));
#285=AXIS2_PLACEMENT_3D('',#282,#283,#284);
#286=PLANE('',#285);
#288=ORIENTED_EDGE('',*,*,#287,.T.);
#290=ORIENTED_EDGE('',*,*,#289,.T.);
#292=ORIENTED_EDGE('',*,*,#291,.T.);
#294=ORIENTED_EDGE('',*,*,#293,.T.);
#296=ORIENTED_EDGE('',*,*,#295,.T.);
#298=ORIENTED_EDGE('',*,*,#297,.T.);
#300=ORIENTED_EDGE('',*,*,#299,.T.);
#302=ORIENTED_EDGE('',*,*,#301,.T.);
#303=EDGE_LOOP('',(#288,#290,#292,#294,#296,#298,#300,#302));
#304=FACE_OUTER_BOUND('',#303,.F.);
#306=ORIENTED_EDGE('',*,*,#305,.F.);
#308=ORIENTED_EDGE('',*,*,#307,.F.);
#309=EDGE_LOOP('',(#306,#308));
#310=FACE_BOUND('',#309,.F.);
#311=ADVANCED_FACE('',(#304,#310),#286,.T.);
#312=CARTESIAN_POINT('',(0.E0,0.E0,0.E0));
#313=DIRECTION('',(0.E0,0.E0,1.E0));
#314=DIRECTION('',(1.E0,0.E0,0.E0));
#315=AXIS2_PLACEMENT_3D('',#312,#313,#314);
#316=CYLINDRICAL_SURFACE('',#315,1.5675E0);
#317=ORIENTED_EDGE('',*,*,#305,.T.);
#319=ORIENTED_EDGE('',*,*,#318,.T.);
#321=ORIENTED_EDGE('',*,*,#320,.F.);
#323=ORIENTED_EDGE('',*,*,#322,.F.);
#324=EDGE_LOOP('',(#317,#319,#321,#323));
#325=FACE_OUTER_BOUND('',#324,.F.);
#326=ADVANCED_FACE('',(#325),#316,.F.);
#327=CARTESIAN_POINT('',(0.E0,0.E0,0.E0));
#328=DIRECTION('',(0.E0,0.E0,1.E0));
#329=DIRECTION('',(1.E0,0.E0,0.E0));
#330=AXIS2_PLACEMENT_3D('',#327,#328,#329);
#331=CYLINDRICAL_SURFACE('',#330,1.5675E0);
#332=ORIENTED_EDGE('',*,*,#307,.T.);
#333=ORIENTED_EDGE('',*,*,#322,.T.);
#335=ORIENTED_EDGE('',*,*,#334,.F.);
#336=ORIENTED_EDGE('',*,*,#318,.F.);
#337=EDGE_LOOP('',(#332,#333,#335,#336));
#338=FACE_OUTER_BOUND('',#337,.F.);
#339=ADVANCED_FACE('',(#338),#331,.F.);
#340=CARTESIAN_POINT('',(0.E0,0.E0,-2.4E1));
#341=DIRECTION('',(0.E0,0.E0,1.E0));
#342=DIRECTION('',(1.E0,0.E0,0.E0));
#343=AXIS2_PLACEMENT_3D('',#340,#341,#342);
#344=PLANE('',#343);
#346=ORIENTED_EDGE('',*,*,#345,.F.);
#348=ORIENTED_EDGE('',*,*,#347,.F.);
#350=ORIENTED_EDGE('',*,*,#349,.F.);
#352=ORIENTED_EDGE('',*,*,#351,.F.);
#354=ORIENTED_EDGE('',*,*,#353,.F.);
#356=ORIENTED_EDGE('',*,*,#355,.F.);
#358=ORIENTED_EDGE('',*,*,#357,.F.);
#360=ORIENTED_EDGE('',*,*,#359,.F.);
#361=EDGE_LOOP('',(#346,#348,#350,#352,#354,#356,#358,#360));
#362=FACE_OUTER_BOUND('',#361,.F.);
#363=ORIENTED_EDGE('',*,*,#320,.T.);
#364=ORIENTED_EDGE('',*,*,#334,.T.);
#365=EDGE_LOOP('',(#363,#364));
#366=FACE_BOUND('',#365,.F.);
#367=ADVANCED_FACE('',(#362,#366),#344,.F.);
#368=CARTESIAN_POINT('',(1.803674562054E-1,2.562E0,0.E0));
#369=DIRECTION('',(0.E0,1.E0,0.E0));
#370=DIRECTION('',(-1.E0,0.E0,0.E0));
#371=AXIS2_PLACEMENT_3D('',#368,#369,#370);
#372=PLANE('',#371);
#373=ORIENTED_EDGE('',*,*,#287,.F.);
#375=ORIENTED_EDGE('',*,*,#374,.T.);
#376=ORIENTED_EDGE('',*,*,#345,.T.);
#378=ORIENTED_EDGE('',*,*,#377,.F.);
#379=EDGE_LOOP('',(#373,#375,#376,#378));
#380=FACE_OUTER_BOUND('',#379,.F.);
#381=ADVANCED_FACE('',(#380),#372,.T.);
#382=CARTESIAN_POINT('',(-1.803674562054E-1,2.562E0,0.E0));
#383=DIRECTION('',(-5.E-1,8.660254037844E-1,0.E0));
#384=DIRECTION('',(-8.660254037844E-1,-5.E-1,0.E0));
#385=AXIS2_PLACEMENT_3D('',#382,#383,#384);
#386=PLANE('',#385);
#387=ORIENTED_EDGE('',*,*,#301,.F.);
#389=ORIENTED_EDGE('',*,*,#388,.F.);
#390=ORIENTED_EDGE('',*,*,#347,.T.);
#391=ORIENTED_EDGE('',*,*,#374,.F.);
#392=EDGE_LOOP('',(#387,#389,#390,#391));
#393=FACE_OUTER_BOUND('',#392,.F.);
#394=ADVANCED_FACE('',(#393),#386,.T.);
#395=CARTESIAN_POINT('',(-2.0625E0,8.98E-1,0.E0));
#396=DIRECTION('',(0.E0,0.E0,1.E0));
#397=DIRECTION('',(1.E0,0.E0,0.E0));
#398=AXIS2_PLACEMENT_3D('',#395,#396,#397);
#399=CYLINDRICAL_SURFACE('',#398,5.E-1);
#400=ORIENTED_EDGE('',*,*,#299,.F.);
#402=ORIENTED_EDGE('',*,*,#401,.F.);
#403=ORIENTED_EDGE('',*,*,#349,.T.);
#404=ORIENTED_EDGE('',*,*,#388,.T.);
#405=EDGE_LOOP('',(#400,#402,#403,#404));
#406=FACE_OUTER_BOUND('',#405,.F.);
#407=ADVANCED_FACE('',(#406),#399,.T.);
#408=CARTESIAN_POINT('',(-2.5625E0,8.98E-1,0.E0));
#409=DIRECTION('',(-1.E0,0.E0,0.E0));
#410=DIRECTION('',(0.E0,-1.E0,0.E0));
#411=AXIS2_PLACEMENT_3D('',#408,#409,#410);
#412=PLANE('',#411);
#413=ORIENTED_EDGE('',*,*,#297,.F.);
#415=ORIENTED_EDGE('',*,*,#414,.T.);
#416=ORIENTED_EDGE('',*,*,#351,.T.);
#417=ORIENTED_EDGE('',*,*,#401,.T.);
#418=EDGE_LOOP('',(#413,#415,#416,#417));
#419=FACE_OUTER_BOUND('',#418,.F.);
#420=ADVANCED_FACE('',(#419),#412,.T.);
#421=CARTESIAN_POINT('',(0.E0,0.E0,0.E0));
#422=DIRECTION('',(0.E0,0.E0,1.E0));
#423=DIRECTION('',(1.E0,0.E0,0.E0));
#424=AXIS2_PLACEMENT_3D('',#421,#422,#423);
#425=CYLINDRICAL_SURFACE('',#424,2.875E0);
#426=ORIENTED_EDGE('',*,*,#295,.F.);
#428=ORIENTED_EDGE('',*,*,#427,.T.);
#429=ORIENTED_EDGE('',*,*,#353,.T.);
#430=ORIENTED_EDGE('',*,*,#414,.F.);
#431=EDGE_LOOP('',(#426,#428,#429,#430));
#432=FACE_OUTER_BOUND('',#431,.F.);
#433=ADVANCED_FACE('',(#432),#425,.T.);
#434=CARTESIAN_POINT('',(2.5625E0,-1.303540850913E0,0.E0));
#435=DIRECTION('',(1.E0,0.E0,0.E0));
#436=DIRECTION('',(0.E0,1.E0,0.E0));
#437=AXIS2_PLACEMENT_3D('',#434,#435,#436);
#438=PLANE('',#437);
#439=ORIENTED_EDGE('',*,*,#293,.F.);
#441=ORIENTED_EDGE('',*,*,#440,.F.);
#442=ORIENTED_EDGE('',*,*,#355,.T.);
#443=ORIENTED_EDGE('',*,*,#427,.F.);
#444=EDGE_LOOP('',(#439,#441,#442,#443));
#445=FACE_OUTER_BOUND('',#444,.F.);
#446=ADVANCED_FACE('',(#445),#438,.T.);
#447=CARTESIAN_POINT('',(2.0625E0,8.98E-1,0.E0));
#448=DIRECTION('',(0.E0,0.E0,1.E0));
#449=DIRECTION('',(1.E0,0.E0,0.E0));
#450=AXIS2_PLACEMENT_3D('',#447,#448,#449);
#451=CYLINDRICAL_SURFACE('',#450,5.E-1);
#452=ORIENTED_EDGE('',*,*,#291,.F.);
#454=ORIENTED_EDGE('',*,*,#453,.F.);
#455=ORIENTED_EDGE('',*,*,#357,.T.);
#456=ORIENTED_EDGE('',*,*,#440,.T.);
#457=EDGE_LOOP('',(#452,#454,#455,#456));
#458=FACE_OUTER_BOUND('',#457,.F.);
#459=ADVANCED_FACE('',(#458),#451,.T.);
#460=CARTESIAN_POINT('',(2.3125E0,1.331012701892E0,0.E0));
#461=DIRECTION('',(5.E-1,8.660254037844E-1,0.E0));
#462=DIRECTION('',(-8.660254037844E-1,5.E-1,0.E0));
#463=AXIS2_PLACEMENT_3D('',#460,#461,#462);
#464=PLANE('',#463);
#465=ORIENTED_EDGE('',*,*,#289,.F.);
#466=ORIENTED_EDGE('',*,*,#377,.T.);
#467=ORIENTED_EDGE('',*,*,#359,.T.);
#468=ORIENTED_EDGE('',*,*,#453,.T.);
#469=EDGE_LOOP('',(#465,#466,#467,#468));
#470=FACE_OUTER_BOUND('',#469,.F.);
#471=ADVANCED_FACE('',(#470),#464,.T.);
#472=CLOSED_SHELL('',(#311,#326,#339,#367,#381,#394,#407,#420,#433,#446,#459,
#471));
#473=MANIFOLD_SOLID_BREP('',#472);
#474=DIMENSIONAL_EXPONENTS(1.E0,0.E0,0.E0,0.E0,0.E0,0.E0,0.E0);
#475=(LENGTH_UNIT()NAMED_UNIT(*)SI_UNIT(.MILLI.,.METRE.));
#476=LENGTH_MEASURE_WITH_UNIT(LENGTH_MEASURE(2.54E1),#475);
#477=(CONVERSION_BASED_UNIT('INCH',#476)LENGTH_UNIT()NAMED_UNIT(#474));
#478=DIMENSIONAL_EXPONENTS(0.E0,0.E0,0.E0,0.E0,0.E0,0.E0,0.E0);
#479=(NAMED_UNIT(*)PLANE_ANGLE_UNIT()SI_UNIT($,.RADIAN.));
#480=PLANE_ANGLE_MEASURE_WITH_UNIT(PLANE_ANGLE_MEASURE(1.745329251994E-2),#479);
#481=(CONVERSION_BASED_UNIT('DEGREE',#480)NAMED_UNIT(#478)PLANE_ANGLE_UNIT());
#482=(NAMED_UNIT(*)SI_UNIT($,.STERADIAN.)SOLID_ANGLE_UNIT());
#483=UNCERTAINTY_MEASURE_WITH_UNIT(LENGTH_MEASURE(2.513515563675E-3),#477,
'distance_accuracy_value',
'Maximum model space distance between geometric entities at asserted connectivities');
#484=(GEOMETRIC_REPRESENTATION_CONTEXT(3)GLOBAL_UNCERTAINTY_ASSIGNED_CONTEXT((
#483))GLOBAL_UNIT_ASSIGNED_CONTEXT((#477,#481,#482))REPRESENTATION_CONTEXT
('ID1','3'));
#486=APPLICATION_CONTEXT('automotive_design');
#487=APPLICATION_PROTOCOL_DEFINITION('draft international standard',
'automotive_design',1998,#486);
#488=PRODUCT_DEFINITION_CONTEXT('part definition',#486,'design');
#489=PRODUCT_CONTEXT('',#486,'mechanical');
#490=PRODUCT('ILC64043101','ILC64043101','NOT SPECIFIED',(#489));
#491=PRODUCT_DEFINITION_FORMATION_WITH_SPECIFIED_SOURCE('','LAST_VERSION',#490,
.MADE.);
#495=PRODUCT_TYPE('part','',(#490));
#116=CIRCLE('',#115,1.5675E0);
#121=CIRCLE('',#120,1.5675E0);
#134=CIRCLE('',#133,5.E-1);
#143=CIRCLE('',#142,2.875E0);
#152=CIRCLE('',#151,5.E-1);
#169=CIRCLE('',#168,1.5675E0);
#174=CIRCLE('',#173,1.5675E0);
#187=CIRCLE('',#186,5.E-1);
#196=CIRCLE('',#195,2.875E0);
#205=CIRCLE('',#204,5.E-1);
#287=EDGE_CURVE('',#244,#245,#125,.T.);
#289=EDGE_CURVE('',#245,#257,#129,.T.);
#291=EDGE_CURVE('',#257,#254,#134,.T.);
#293=EDGE_CURVE('',#254,#255,#138,.T.);
#295=EDGE_CURVE('',#255,#251,#143,.T.);
#297=EDGE_CURVE('',#251,#249,#147,.T.);
#299=EDGE_CURVE('',#249,#247,#152,.T.);
#301=EDGE_CURVE('',#247,#244,#156,.T.);
#305=EDGE_CURVE('',#276,#277,#116,.T.);
#307=EDGE_CURVE('',#277,#276,#121,.T.);
#318=EDGE_CURVE('',#277,#281,#164,.T.);
#320=EDGE_CURVE('',#280,#281,#169,.T.);
#322=EDGE_CURVE('',#276,#280,#160,.T.);
#334=EDGE_CURVE('',#281,#280,#174,.T.);
#345=EDGE_CURVE('',#260,#261,#178,.T.);
#347=EDGE_CURVE('',#263,#260,#182,.T.);
#349=EDGE_CURVE('',#265,#263,#187,.T.);
#351=EDGE_CURVE('',#267,#265,#191,.T.);
#353=EDGE_CURVE('',#271,#267,#196,.T.);
#355=EDGE_CURVE('',#270,#271,#200,.T.);
#357=EDGE_CURVE('',#273,#270,#205,.T.);
#359=EDGE_CURVE('',#261,#273,#209,.T.);
#374=EDGE_CURVE('',#244,#260,#217,.T.);
#377=EDGE_CURVE('',#245,#261,#213,.T.);
#388=EDGE_CURVE('',#263,#247,#221,.T.);
#401=EDGE_CURVE('',#265,#249,#225,.T.);
#414=EDGE_CURVE('',#251,#267,#229,.T.);
#427=EDGE_CURVE('',#255,#271,#233,.T.);
#440=EDGE_CURVE('',#270,#254,#237,.T.);
#453=EDGE_CURVE('',#273,#257,#241,.T.);
#485=ADVANCED_BREP_SHAPE_REPRESENTATION('',(#473),#484);
#492=PRODUCT_DEFINITION('part definition','',#491,#488);
#493=PRODUCT_DEFINITION_SHAPE('','SHAPE FOR ILC64043101.',#492);
#494=SHAPE_DEFINITION_REPRESENTATION(#493,#485);
ENDSEC;
END-ISO-10303-21;
