ISO-10303-21;
HEADER;
FILE_DESCRIPTION((''),'2;1');
FILE_NAME('ILC66046202','2005-06-28T',('KR'),(''),
'PRO/ENGINEER BY PARAMETRIC TECHNOLOGY CORPORATION, 2004290',
'PRO/ENGINEER BY PARAMETRIC TECHNOLOGY CORPORATION, 2004290','');
FILE_SCHEMA(('AUTOMOTIVE_DESIGN_CC2 { 1 2 10303 214 -1 1 5 2 }'));
ENDSEC;
DATA;
#1=COLOUR_RGB('',0.E0,0.E0,4.7E-1);
#2=COLOUR_RGB('',0.E0,0.E0,6.E-1);
#3=COLOUR_RGB('',0.E0,0.E0,8.E-1);
#4=DRAUGHTING_PRE_DEFINED_COLOUR('blue');
#5=COLOUR_RGB('',0.E0,2.E-1,1.E0);
#6=COLOUR_RGB('',0.E0,3.3E-1,0.E0);
#7=COLOUR_RGB('',0.E0,3.3E-1,3.3E-1);
#8=COLOUR_RGB('',0.E0,4.E-1,0.E0);
#9=COLOUR_RGB('',0.E0,4.E-1,4.E-1);
#10=COLOUR_RGB('',0.E0,4.E-1,1.E0);
#11=COLOUR_RGB('',0.E0,5.3E-1,5.3E-1);
#12=COLOUR_RGB('',0.E0,6.E-1,0.E0);
#13=COLOUR_RGB('',0.E0,6.E-1,6.E-1);
#14=COLOUR_RGB('',0.E0,6.E-1,1.E0);
#15=COLOUR_RGB('',0.E0,8.E-1,0.E0);
#16=COLOUR_RGB('',0.E0,8.E-1,8.E-1);
#17=COLOUR_RGB('',0.E0,8.E-1,1.E0);
#18=COLOUR_RGB('',0.E0,9.3E-1,0.E0);
#19=COLOUR_RGB('',0.E0,9.3E-1,9.3E-1);
#20=DRAUGHTING_PRE_DEFINED_COLOUR('green');
#21=COLOUR_RGB('',0.E0,1.E0,2.E-1);
#22=COLOUR_RGB('',0.E0,1.E0,4.E-1);
#23=COLOUR_RGB('',0.E0,1.E0,6.E-1);
#24=COLOUR_RGB('',0.E0,1.E0,8.E-1);
#25=DRAUGHTING_PRE_DEFINED_COLOUR('cyan');
#26=COLOUR_RGB('',7.E-2,7.E-2,1.E0);
#27=COLOUR_RGB('',2.E-1,1.E0,0.E0);
#28=COLOUR_RGB('',2.E-1,1.E0,2.E-1);
#29=COLOUR_RGB('',2.E-1,1.E0,1.E0);
#30=COLOUR_RGB('',2.7E-1,0.E0,4.E-1);
#31=COLOUR_RGB('',2.7E-1,2.7E-1,0.E0);
#32=COLOUR_RGB('',2.7E-1,2.7E-1,1.E0);
#33=COLOUR_RGB('',3.3E-1,0.E0,0.E0);
#34=COLOUR_RGB('',3.3E-1,0.E0,3.3E-1);
#35=COLOUR_RGB('',3.3E-1,0.E0,5.3E-1);
#36=COLOUR_RGB('',4.E-1,0.E0,4.E-1);
#37=COLOUR_RGB('',4.E-1,0.E0,6.7E-1);
#38=COLOUR_RGB('',4.E-1,1.3E-1,0.E0);
#39=COLOUR_RGB('',4.E-1,4.E-1,0.E0);
#40=COLOUR_RGB('',4.E-1,4.E-1,1.E0);
#41=COLOUR_RGB('',4.E-1,1.E0,0.E0);
#42=COLOUR_RGB('',4.E-1,1.E0,4.E-1);
#43=COLOUR_RGB('',4.E-1,1.E0,1.E0);
#44=COLOUR_RGB('',4.7E-1,0.E0,0.E0);
#45=COLOUR_RGB('',4.7E-1,0.E0,8.E-1);
#46=COLOUR_RGB('',4.7E-1,0.E0,8.7E-1);
#47=COLOUR_RGB('',4.7E-1,2.E-1,7.E-2);
#48=COLOUR_RGB('',4.7E-1,4.7E-1,4.7E-1);
#49=COLOUR_RGB('',5.3E-1,0.E0,9.3E-1);
#50=COLOUR_RGB('',5.3E-1,2.7E-1,1.3E-1);
#51=COLOUR_RGB('',5.3E-1,5.3E-1,1.E0);
#52=COLOUR_RGB('',6.E-1,0.E0,6.E-1);
#53=COLOUR_RGB('',6.E-1,2.E-1,1.E0);
#54=COLOUR_RGB('',6.E-1,3.3E-1,2.E-1);
#55=COLOUR_RGB('',6.E-1,6.E-1,0.E0);
#56=COLOUR_RGB('',6.E-1,6.E-1,1.E0);
#57=COLOUR_RGB('',6.E-1,1.E0,6.E-1);
#58=COLOUR_RGB('',6.E-1,1.E0,1.E0);
#59=COLOUR_RGB('',6.7E-1,0.E0,0.E0);
#60=COLOUR_RGB('',6.7E-1,0.E0,5.3E-1);
#61=COLOUR_RGB('',6.7E-1,4.E-1,2.7E-1);
#62=COLOUR_RGB('',6.7E-1,4.E-1,1.E0);
#63=COLOUR_RGB('',6.7E-1,6.7E-1,1.E0);
#64=COLOUR_RGB('',6.7E-1,1.E0,0.E0);
#65=COLOUR_RGB('',7.3E-1,2.7E-1,1.E0);
#66=COLOUR_RGB('',7.3E-1,4.E-1,0.E0);
#67=COLOUR_RGB('',7.3E-1,4.7E-1,3.3E-1);
#68=COLOUR_RGB('',7.3E-1,7.3E-1,7.3E-1);
#69=COLOUR_RGB('',8.E-1,0.E0,8.E-1);
#70=COLOUR_RGB('',8.E-1,5.3E-1,4.E-1);
#71=COLOUR_RGB('',8.E-1,6.E-1,1.E0);
#72=COLOUR_RGB('',8.E-1,8.E-1,0.E0);
#73=COLOUR_RGB('',8.E-1,8.E-1,1.E0);
#74=COLOUR_RGB('',8.E-1,1.E0,8.E-1);
#75=COLOUR_RGB('',8.E-1,1.E0,1.E0);
#76=COLOUR_RGB('',8.7E-1,0.E0,0.E0);
#77=COLOUR_RGB('',8.7E-1,6.E-1,4.7E-1);
#78=COLOUR_RGB('',9.3E-1,0.E0,9.3E-1);
#79=COLOUR_RGB('',9.3E-1,6.7E-1,5.3E-1);
#80=COLOUR_RGB('',9.3E-1,8.E-1,1.E0);
#81=COLOUR_RGB('',9.3E-1,9.3E-1,0.E0);
#82=COLOUR_RGB('',9.3E-1,1.E0,9.3E-1);
#83=COLOUR_RGB('',9.3E-1,1.E0,1.E0);
#84=DRAUGHTING_PRE_DEFINED_COLOUR('red');
#85=COLOUR_RGB('',1.E0,0.E0,2.7E-1);
#86=COLOUR_RGB('',1.E0,0.E0,4.7E-1);
#87=DRAUGHTING_PRE_DEFINED_COLOUR('magenta');
#88=COLOUR_RGB('',1.E0,7.E-2,7.E-2);
#89=COLOUR_RGB('',1.E0,2.E-1,1.E0);
#90=COLOUR_RGB('',1.E0,2.7E-1,0.E0);
#91=COLOUR_RGB('',1.E0,2.7E-1,2.7E-1);
#92=COLOUR_RGB('',1.E0,4.E-1,1.E0);
#93=COLOUR_RGB('',1.E0,4.7E-1,0.E0);
#94=COLOUR_RGB('',1.E0,4.7E-1,4.7E-1);
#95=COLOUR_RGB('',1.E0,4.7E-1,5.3E-1);
#96=COLOUR_RGB('',1.E0,6.E-1,1.E0);
#97=COLOUR_RGB('',1.E0,6.7E-1,0.E0);
#98=COLOUR_RGB('',1.E0,6.7E-1,6.7E-1);
#99=COLOUR_RGB('',1.E0,7.3E-1,5.3E-1);
#100=COLOUR_RGB('',1.E0,7.3E-1,6.E-1);
#101=COLOUR_RGB('',1.E0,8.E-1,8.E-1);
#102=COLOUR_RGB('',1.E0,8.E-1,1.E0);
#103=COLOUR_RGB('',1.E0,8.7E-1,0.E0);
#104=COLOUR_RGB('',1.E0,9.3E-1,9.3E-1);
#105=COLOUR_RGB('',1.E0,9.3E-1,1.E0);
#106=DRAUGHTING_PRE_DEFINED_COLOUR('yellow');
#107=COLOUR_RGB('',1.E0,1.E0,1.3E-1);
#108=COLOUR_RGB('',1.E0,1.E0,3.3E-1);
#109=COLOUR_RGB('',1.E0,1.E0,5.3E-1);
#110=COLOUR_RGB('',1.E0,1.E0,7.3E-1);
#111=COLOUR_RGB('',1.E0,1.E0,9.3E-1);
#112=CARTESIAN_POINT('',(0.E0,-6.E-1,0.E0));
#113=DIRECTION('',(0.E0,-1.E0,0.E0));
#114=DIRECTION('',(0.E0,0.E0,-1.E0));
#115=AXIS2_PLACEMENT_3D('',#112,#113,#114);
#117=CARTESIAN_POINT('',(0.E0,-6.2E-1,0.E0));
#118=DIRECTION('',(0.E0,-1.E0,0.E0));
#119=DIRECTION('',(0.E0,0.E0,-1.E0));
#120=AXIS2_PLACEMENT_3D('',#117,#118,#119);
#122=DIRECTION('',(0.E0,1.E0,0.E0));
#123=VECTOR('',#122,6.E-1);
#124=CARTESIAN_POINT('',(0.E0,-6.E-1,-1.8775E-1));
#125=LINE('',#124,#123);
#126=DIRECTION('',(0.E0,1.E0,0.E0));
#127=VECTOR('',#126,6.E-1);
#128=CARTESIAN_POINT('',(0.E0,-6.E-1,1.8775E-1));
#129=LINE('',#128,#127);
#130=CARTESIAN_POINT('',(0.E0,0.E0,0.E0));
#131=DIRECTION('',(0.E0,1.E0,0.E0));
#132=DIRECTION('',(0.E0,0.E0,-1.E0));
#133=AXIS2_PLACEMENT_3D('',#130,#131,#132);
#135=CARTESIAN_POINT('',(0.E0,0.E0,0.E0));
#136=DIRECTION('',(0.E0,-1.E0,0.E0));
#137=DIRECTION('',(0.E0,0.E0,-1.E0));
#138=AXIS2_PLACEMENT_3D('',#135,#136,#137);
#140=CARTESIAN_POINT('',(0.E0,0.E0,0.E0));
#141=DIRECTION('',(0.E0,-1.E0,0.E0));
#142=DIRECTION('',(0.E0,0.E0,-1.E0));
#143=AXIS2_PLACEMENT_3D('',#140,#141,#142);
#145=DIRECTION('',(0.E0,1.E0,0.E0));
#146=VECTOR('',#145,4.8E-1);
#147=CARTESIAN_POINT('',(0.E0,0.E0,-3.1E-1));
#148=LINE('',#147,#146);
#149=DIRECTION('',(0.E0,1.E0,0.E0));
#150=VECTOR('',#149,4.8E-1);
#151=CARTESIAN_POINT('',(0.E0,0.E0,3.1E-1));
#152=LINE('',#151,#150);
#153=CARTESIAN_POINT('',(0.E0,0.E0,0.E0));
#154=DIRECTION('',(0.E0,1.E0,0.E0));
#155=DIRECTION('',(0.E0,0.E0,-1.E0));
#156=AXIS2_PLACEMENT_3D('',#153,#154,#155);
#158=CARTESIAN_POINT('',(0.E0,5.E-1,0.E0));
#159=DIRECTION('',(0.E0,1.E0,0.E0));
#160=DIRECTION('',(0.E0,0.E0,-1.E0));
#161=AXIS2_PLACEMENT_3D('',#158,#159,#160);
#163=DIRECTION('',(1.355849202804E-14,-7.071067811865E-1,7.071067811865E-1));
#164=VECTOR('',#163,2.828427124746E-2);
#165=CARTESIAN_POINT('',(0.E0,5.E-1,2.9E-1));
#166=LINE('',#165,#164);
#167=CARTESIAN_POINT('',(0.E0,4.8E-1,0.E0));
#168=DIRECTION('',(0.E0,1.E0,0.E0));
#169=DIRECTION('',(0.E0,0.E0,-1.E0));
#170=AXIS2_PLACEMENT_3D('',#167,#168,#169);
#172=DIRECTION('',(0.E0,-7.071067811865E-1,-7.071067811865E-1));
#173=VECTOR('',#172,2.828427124746E-2);
#174=CARTESIAN_POINT('',(0.E0,5.E-1,-2.9E-1));
#175=LINE('',#174,#173);
#176=CARTESIAN_POINT('',(0.E0,5.E-1,0.E0));
#177=DIRECTION('',(0.E0,-1.E0,0.E0));
#178=DIRECTION('',(0.E0,0.E0,-1.E0));
#179=AXIS2_PLACEMENT_3D('',#176,#177,#178);
#181=CARTESIAN_POINT('',(0.E0,4.8E-1,0.E0));
#182=DIRECTION('',(0.E0,-1.E0,0.E0));
#183=DIRECTION('',(0.E0,0.E0,-1.E0));
#184=AXIS2_PLACEMENT_3D('',#181,#182,#183);
#186=CARTESIAN_POINT('',(0.E0,-6.E-1,0.E0));
#187=DIRECTION('',(0.E0,1.E0,0.E0));
#188=DIRECTION('',(0.E0,0.E0,-1.E0));
#189=AXIS2_PLACEMENT_3D('',#186,#187,#188);
#191=DIRECTION('',(0.E0,-7.071067811865E-1,-7.071067811865E-1));
#192=VECTOR('',#191,2.828427124746E-2);
#193=CARTESIAN_POINT('',(0.E0,-6.E-1,1.8775E-1));
#194=LINE('',#193,#192);
#195=CARTESIAN_POINT('',(0.E0,-6.2E-1,0.E0));
#196=DIRECTION('',(0.E0,1.E0,0.E0));
#197=DIRECTION('',(0.E0,0.E0,-1.E0));
#198=AXIS2_PLACEMENT_3D('',#195,#196,#197);
#200=DIRECTION('',(0.E0,-7.071067811865E-1,7.071067811865E-1));
#201=VECTOR('',#200,2.828427124746E-2);
#202=CARTESIAN_POINT('',(0.E0,-6.E-1,-1.8775E-1));
#203=LINE('',#202,#201);
#204=CARTESIAN_POINT('',(0.E0,0.E0,-1.8775E-1));
#205=CARTESIAN_POINT('',(0.E0,0.E0,1.8775E-1));
#206=VERTEX_POINT('',#204);
#207=VERTEX_POINT('',#205);
#208=CARTESIAN_POINT('',(0.E0,0.E0,-3.1E-1));
#209=CARTESIAN_POINT('',(0.E0,0.E0,3.1E-1));
#210=VERTEX_POINT('',#208);
#211=VERTEX_POINT('',#209);
#212=CARTESIAN_POINT('',(0.E0,5.E-1,-2.9E-1));
#213=CARTESIAN_POINT('',(0.E0,5.E-1,2.9E-1));
#214=VERTEX_POINT('',#212);
#215=VERTEX_POINT('',#213);
#216=CARTESIAN_POINT('',(0.E0,4.8E-1,-3.1E-1));
#217=CARTESIAN_POINT('',(0.E0,4.8E-1,3.1E-1));
#218=VERTEX_POINT('',#216);
#219=VERTEX_POINT('',#217);
#220=CARTESIAN_POINT('',(0.E0,-6.E-1,-1.8775E-1));
#221=CARTESIAN_POINT('',(0.E0,-6.E-1,1.8775E-1));
#222=VERTEX_POINT('',#220);
#223=VERTEX_POINT('',#221);
#224=CARTESIAN_POINT('',(0.E0,-6.2E-1,-1.6775E-1));
#225=CARTESIAN_POINT('',(0.E0,-6.2E-1,1.6775E-1));
#226=VERTEX_POINT('',#224);
#227=VERTEX_POINT('',#225);
#228=CARTESIAN_POINT('',(0.E0,-6.2E-1,0.E0));
#229=DIRECTION('',(0.E0,-1.E0,0.E0));
#230=DIRECTION('',(0.E0,0.E0,1.E0));
#231=AXIS2_PLACEMENT_3D('',#228,#229,#230);
#232=PLANE('',#231);
#234=ORIENTED_EDGE('',*,*,#233,.F.);
#236=ORIENTED_EDGE('',*,*,#235,.T.);
#237=EDGE_LOOP('',(#234,#236));
#238=FACE_OUTER_BOUND('',#237,.F.);
#239=ADVANCED_FACE('',(#238),#232,.T.);
#240=CARTESIAN_POINT('',(0.E0,-6.1E-1,0.E0));
#241=DIRECTION('',(0.E0,1.E0,0.E0));
#242=DIRECTION('',(0.E0,0.E0,-1.E0));
#243=AXIS2_PLACEMENT_3D('',#240,#241,#242);
#244=CONICAL_SURFACE('',#243,1.7775E-1,4.5E1);
#246=ORIENTED_EDGE('',*,*,#245,.F.);
#248=ORIENTED_EDGE('',*,*,#247,.T.);
#249=ORIENTED_EDGE('',*,*,#233,.T.);
#251=ORIENTED_EDGE('',*,*,#250,.F.);
#252=EDGE_LOOP('',(#246,#248,#249,#251));
#253=FACE_OUTER_BOUND('',#252,.F.);
#254=ADVANCED_FACE('',(#253),#244,.T.);
#255=CARTESIAN_POINT('',(0.E0,5.56E-1,0.E0));
#256=DIRECTION('',(0.E0,-1.E0,0.E0));
#257=DIRECTION('',(0.E0,0.E0,1.E0));
#258=AXIS2_PLACEMENT_3D('',#255,#256,#257);
#259=CYLINDRICAL_SURFACE('',#258,1.8775E-1);
#261=ORIENTED_EDGE('',*,*,#260,.F.);
#262=ORIENTED_EDGE('',*,*,#245,.T.);
#264=ORIENTED_EDGE('',*,*,#263,.T.);
#266=ORIENTED_EDGE('',*,*,#265,.F.);
#267=EDGE_LOOP('',(#261,#262,#264,#266));
#268=FACE_OUTER_BOUND('',#267,.F.);
#269=ADVANCED_FACE('',(#268),#259,.T.);
#270=CARTESIAN_POINT('',(0.E0,5.56E-1,0.E0));
#271=DIRECTION('',(0.E0,-1.E0,0.E0));
#272=DIRECTION('',(0.E0,0.E0,1.E0));
#273=AXIS2_PLACEMENT_3D('',#270,#271,#272);
#274=CYLINDRICAL_SURFACE('',#273,1.8775E-1);
#275=ORIENTED_EDGE('',*,*,#260,.T.);
#277=ORIENTED_EDGE('',*,*,#276,.T.);
#278=ORIENTED_EDGE('',*,*,#263,.F.);
#280=ORIENTED_EDGE('',*,*,#279,.F.);
#281=EDGE_LOOP('',(#275,#277,#278,#280));
#282=FACE_OUTER_BOUND('',#281,.F.);
#283=ADVANCED_FACE('',(#282),#274,.T.);
#284=CARTESIAN_POINT('',(0.E0,0.E0,0.E0));
#285=DIRECTION('',(0.E0,-1.E0,0.E0));
#286=DIRECTION('',(0.E0,0.E0,1.E0));
#287=AXIS2_PLACEMENT_3D('',#284,#285,#286);
#288=PLANE('',#287);
#290=ORIENTED_EDGE('',*,*,#289,.F.);
#292=ORIENTED_EDGE('',*,*,#291,.T.);
#293=EDGE_LOOP('',(#290,#292));
#294=FACE_OUTER_BOUND('',#293,.F.);
#295=ORIENTED_EDGE('',*,*,#276,.F.);
#296=ORIENTED_EDGE('',*,*,#265,.T.);
#297=EDGE_LOOP('',(#295,#296));
#298=FACE_BOUND('',#297,.F.);
#299=ADVANCED_FACE('',(#294,#298),#288,.T.);
#300=CARTESIAN_POINT('',(0.E0,5.56E-1,0.E0));
#301=DIRECTION('',(0.E0,-1.E0,0.E0));
#302=DIRECTION('',(0.E0,0.E0,1.E0));
#303=AXIS2_PLACEMENT_3D('',#300,#301,#302);
#304=CYLINDRICAL_SURFACE('',#303,3.1E-1);
#306=ORIENTED_EDGE('',*,*,#305,.F.);
#307=ORIENTED_EDGE('',*,*,#289,.T.);
#309=ORIENTED_EDGE('',*,*,#308,.T.);
#311=ORIENTED_EDGE('',*,*,#310,.F.);
#312=EDGE_LOOP('',(#306,#307,#309,#311));
#313=FACE_OUTER_BOUND('',#312,.F.);
#314=ADVANCED_FACE('',(#313),#304,.T.);
#315=CARTESIAN_POINT('',(0.E0,5.56E-1,0.E0));
#316=DIRECTION('',(0.E0,-1.E0,0.E0));
#317=DIRECTION('',(0.E0,0.E0,1.E0));
#318=AXIS2_PLACEMENT_3D('',#315,#316,#317);
#319=CYLINDRICAL_SURFACE('',#318,3.1E-1);
#320=ORIENTED_EDGE('',*,*,#305,.T.);
#322=ORIENTED_EDGE('',*,*,#321,.T.);
#323=ORIENTED_EDGE('',*,*,#308,.F.);
#324=ORIENTED_EDGE('',*,*,#291,.F.);
#325=EDGE_LOOP('',(#320,#322,#323,#324));
#326=FACE_OUTER_BOUND('',#325,.F.);
#327=ADVANCED_FACE('',(#326),#319,.T.);
#328=CARTESIAN_POINT('',(0.E0,4.9E-1,0.E0));
#329=DIRECTION('',(0.E0,-1.E0,0.E0));
#330=DIRECTION('',(0.E0,0.E0,1.E0));
#331=AXIS2_PLACEMENT_3D('',#328,#329,#330);
#332=CONICAL_SURFACE('',#331,3.E-1,4.5E1);
#334=ORIENTED_EDGE('',*,*,#333,.T.);
#336=ORIENTED_EDGE('',*,*,#335,.T.);
#337=ORIENTED_EDGE('',*,*,#321,.F.);
#339=ORIENTED_EDGE('',*,*,#338,.F.);
#340=EDGE_LOOP('',(#334,#336,#337,#339));
#341=FACE_OUTER_BOUND('',#340,.F.);
#342=ADVANCED_FACE('',(#341),#332,.T.);
#343=CARTESIAN_POINT('',(0.E0,5.E-1,0.E0));
#344=DIRECTION('',(0.E0,-1.E0,0.E0));
#345=DIRECTION('',(0.E0,0.E0,1.E0));
#346=AXIS2_PLACEMENT_3D('',#343,#344,#345);
#347=PLANE('',#346);
#348=ORIENTED_EDGE('',*,*,#333,.F.);
#350=ORIENTED_EDGE('',*,*,#349,.T.);
#351=EDGE_LOOP('',(#348,#350));
#352=FACE_OUTER_BOUND('',#351,.F.);
#353=ADVANCED_FACE('',(#352),#347,.F.);
#354=CARTESIAN_POINT('',(0.E0,4.9E-1,0.E0));
#355=DIRECTION('',(0.E0,-1.E0,0.E0));
#356=DIRECTION('',(0.E0,0.E0,1.E0));
#357=AXIS2_PLACEMENT_3D('',#354,#355,#356);
#358=CONICAL_SURFACE('',#357,3.E-1,4.5E1);
#359=ORIENTED_EDGE('',*,*,#349,.F.);
#360=ORIENTED_EDGE('',*,*,#338,.T.);
#361=ORIENTED_EDGE('',*,*,#310,.T.);
#362=ORIENTED_EDGE('',*,*,#335,.F.);
#363=EDGE_LOOP('',(#359,#360,#361,#362));
#364=FACE_OUTER_BOUND('',#363,.F.);
#365=ADVANCED_FACE('',(#364),#358,.T.);
#366=CARTESIAN_POINT('',(0.E0,-6.1E-1,0.E0));
#367=DIRECTION('',(0.E0,1.E0,0.E0));
#368=DIRECTION('',(0.E0,0.E0,-1.E0));
#369=AXIS2_PLACEMENT_3D('',#366,#367,#368);
#370=CONICAL_SURFACE('',#369,1.7775E-1,4.5E1);
#371=ORIENTED_EDGE('',*,*,#279,.T.);
#372=ORIENTED_EDGE('',*,*,#250,.T.);
#373=ORIENTED_EDGE('',*,*,#235,.F.);
#374=ORIENTED_EDGE('',*,*,#247,.F.);
#375=EDGE_LOOP('',(#371,#372,#373,#374));
#376=FACE_OUTER_BOUND('',#375,.F.);
#377=ADVANCED_FACE('',(#376),#370,.T.);
#378=CLOSED_SHELL('',(#239,#254,#269,#283,#299,#314,#327,#342,#353,#365,#377));
#379=MANIFOLD_SOLID_BREP('',#378);
#380=DIMENSIONAL_EXPONENTS(1.E0,0.E0,0.E0,0.E0,0.E0,0.E0,0.E0);
#381=(LENGTH_UNIT()NAMED_UNIT(*)SI_UNIT(.MILLI.,.METRE.));
#382=LENGTH_MEASURE_WITH_UNIT(LENGTH_MEASURE(2.54E1),#381);
#383=(CONVERSION_BASED_UNIT('INCH',#382)LENGTH_UNIT()NAMED_UNIT(#380));
#384=DIMENSIONAL_EXPONENTS(0.E0,0.E0,0.E0,0.E0,0.E0,0.E0,0.E0);
#385=(NAMED_UNIT(*)PLANE_ANGLE_UNIT()SI_UNIT($,.RADIAN.));
#386=PLANE_ANGLE_MEASURE_WITH_UNIT(PLANE_ANGLE_MEASURE(1.745329251994E-2),#385);
#387=(CONVERSION_BASED_UNIT('DEGREE',#386)NAMED_UNIT(#384)PLANE_ANGLE_UNIT());
#388=(NAMED_UNIT(*)SI_UNIT($,.STERADIAN.)SOLID_ANGLE_UNIT());
#389=UNCERTAINTY_MEASURE_WITH_UNIT(LENGTH_MEASURE(1.422335455242E-4),#383,
'distance_accuracy_value',
'Maximum model space distance between geometric entities at asserted connectivities');
#390=(GEOMETRIC_REPRESENTATION_CONTEXT(3)GLOBAL_UNCERTAINTY_ASSIGNED_CONTEXT((
#389))GLOBAL_UNIT_ASSIGNED_CONTEXT((#383,#387,#388))REPRESENTATION_CONTEXT
('ID1','3'));
#392=APPLICATION_CONTEXT('automotive_design');
#393=APPLICATION_PROTOCOL_DEFINITION('draft international standard',
'automotive_design',1998,#392);
#394=PRODUCT_DEFINITION_CONTEXT('part definition',#392,'design');
#395=PRODUCT_CONTEXT('',#392,'mechanical');
#396=PRODUCT('ILC66046202','ILC66046202','NOT SPECIFIED',(#395));
#397=PRODUCT_DEFINITION_FORMATION_WITH_SPECIFIED_SOURCE('','LAST_VERSION',#396,
.MADE.);
#401=PRODUCT_TYPE('part','',(#396));
#116=CIRCLE('',#115,1.8775E-1);
#121=CIRCLE('',#120,1.6775E-1);
#134=CIRCLE('',#133,1.8775E-1);
#139=CIRCLE('',#138,1.8775E-1);
#144=CIRCLE('',#143,3.1E-1);
#157=CIRCLE('',#156,3.1E-1);
#162=CIRCLE('',#161,2.9E-1);
#171=CIRCLE('',#170,3.1E-1);
#180=CIRCLE('',#179,2.9E-1);
#185=CIRCLE('',#184,3.1E-1);
#190=CIRCLE('',#189,1.8775E-1);
#199=CIRCLE('',#198,1.6775E-1);
#233=EDGE_CURVE('',#226,#227,#121,.T.);
#235=EDGE_CURVE('',#226,#227,#199,.T.);
#245=EDGE_CURVE('',#222,#223,#116,.T.);
#247=EDGE_CURVE('',#222,#226,#203,.T.);
#250=EDGE_CURVE('',#223,#227,#194,.T.);
#260=EDGE_CURVE('',#222,#206,#125,.T.);
#263=EDGE_CURVE('',#223,#207,#129,.T.);
#265=EDGE_CURVE('',#206,#207,#139,.T.);
#276=EDGE_CURVE('',#206,#207,#134,.T.);
#279=EDGE_CURVE('',#222,#223,#190,.T.);
#289=EDGE_CURVE('',#210,#211,#144,.T.);
#291=EDGE_CURVE('',#210,#211,#157,.T.);
#305=EDGE_CURVE('',#210,#218,#148,.T.);
#308=EDGE_CURVE('',#211,#219,#152,.T.);
#310=EDGE_CURVE('',#218,#219,#185,.T.);
#321=EDGE_CURVE('',#218,#219,#171,.T.);
#333=EDGE_CURVE('',#214,#215,#162,.T.);
#335=EDGE_CURVE('',#215,#219,#166,.T.);
#338=EDGE_CURVE('',#214,#218,#175,.T.);
#349=EDGE_CURVE('',#214,#215,#180,.T.);
#391=ADVANCED_BREP_SHAPE_REPRESENTATION('',(#379),#390);
#398=PRODUCT_DEFINITION('part definition','',#397,#394);
#399=PRODUCT_DEFINITION_SHAPE('','SHAPE FOR ILC66046202.',#398);
#400=SHAPE_DEFINITION_REPRESENTATION(#399,#391);
ENDSEC;
END-ISO-10303-21;
