ISO-10303-21;
HEADER;
FILE_DESCRIPTION((''),'2;1');
FILE_NAME('ILC66056205','2005-06-28T',('KR'),(''),
'PRO/ENGINEER BY PARAMETRIC TECHNOLOGY CORPORATION, 2004290',
'PRO/ENGINEER BY PARAMETRIC TECHNOLOGY CORPORATION, 2004290','');
FILE_SCHEMA(('AUTOMOTIVE_DESIGN_CC2 { 1 2 10303 214 -1 1 5 2 }'));
ENDSEC;
DATA;
#1=COLOUR_RGB('',0.E0,0.E0,4.7E-1);
#2=COLOUR_RGB('',0.E0,0.E0,6.E-1);
#3=COLOUR_RGB('',0.E0,0.E0,8.E-1);
#4=DRAUGHTING_PRE_DEFINED_COLOUR('blue');
#5=COLOUR_RGB('',0.E0,2.E-1,1.E0);
#6=COLOUR_RGB('',0.E0,3.3E-1,0.E0);
#7=COLOUR_RGB('',0.E0,3.3E-1,3.3E-1);
#8=COLOUR_RGB('',0.E0,4.E-1,0.E0);
#9=COLOUR_RGB('',0.E0,4.E-1,4.E-1);
#10=COLOUR_RGB('',0.E0,4.E-1,1.E0);
#11=COLOUR_RGB('',0.E0,5.3E-1,5.3E-1);
#12=COLOUR_RGB('',0.E0,6.E-1,0.E0);
#13=COLOUR_RGB('',0.E0,6.E-1,6.E-1);
#14=COLOUR_RGB('',0.E0,6.E-1,1.E0);
#15=COLOUR_RGB('',0.E0,8.E-1,0.E0);
#16=COLOUR_RGB('',0.E0,8.E-1,8.E-1);
#17=COLOUR_RGB('',0.E0,8.E-1,1.E0);
#18=COLOUR_RGB('',0.E0,9.3E-1,0.E0);
#19=COLOUR_RGB('',0.E0,9.3E-1,9.3E-1);
#20=DRAUGHTING_PRE_DEFINED_COLOUR('green');
#21=COLOUR_RGB('',0.E0,1.E0,2.E-1);
#22=COLOUR_RGB('',0.E0,1.E0,4.E-1);
#23=COLOUR_RGB('',0.E0,1.E0,6.E-1);
#24=COLOUR_RGB('',0.E0,1.E0,8.E-1);
#25=DRAUGHTING_PRE_DEFINED_COLOUR('cyan');
#26=COLOUR_RGB('',7.E-2,7.E-2,1.E0);
#27=COLOUR_RGB('',2.E-1,1.E0,0.E0);
#28=COLOUR_RGB('',2.E-1,1.E0,2.E-1);
#29=COLOUR_RGB('',2.E-1,1.E0,1.E0);
#30=COLOUR_RGB('',2.7E-1,0.E0,4.E-1);
#31=COLOUR_RGB('',2.7E-1,2.7E-1,0.E0);
#32=COLOUR_RGB('',2.7E-1,2.7E-1,1.E0);
#33=COLOUR_RGB('',3.3E-1,0.E0,0.E0);
#34=COLOUR_RGB('',3.3E-1,0.E0,3.3E-1);
#35=COLOUR_RGB('',3.3E-1,0.E0,5.3E-1);
#36=COLOUR_RGB('',4.E-1,0.E0,4.E-1);
#37=COLOUR_RGB('',4.E-1,0.E0,6.7E-1);
#38=COLOUR_RGB('',4.E-1,1.3E-1,0.E0);
#39=COLOUR_RGB('',4.E-1,4.E-1,0.E0);
#40=COLOUR_RGB('',4.E-1,4.E-1,1.E0);
#41=COLOUR_RGB('',4.E-1,1.E0,0.E0);
#42=COLOUR_RGB('',4.E-1,1.E0,4.E-1);
#43=COLOUR_RGB('',4.E-1,1.E0,1.E0);
#44=COLOUR_RGB('',4.7E-1,0.E0,0.E0);
#45=COLOUR_RGB('',4.7E-1,0.E0,8.E-1);
#46=COLOUR_RGB('',4.7E-1,0.E0,8.7E-1);
#47=COLOUR_RGB('',4.7E-1,2.E-1,7.E-2);
#48=COLOUR_RGB('',4.7E-1,4.7E-1,4.7E-1);
#49=COLOUR_RGB('',5.3E-1,0.E0,9.3E-1);
#50=COLOUR_RGB('',5.3E-1,2.7E-1,1.3E-1);
#51=COLOUR_RGB('',5.3E-1,5.3E-1,1.E0);
#52=COLOUR_RGB('',6.E-1,0.E0,6.E-1);
#53=COLOUR_RGB('',6.E-1,2.E-1,1.E0);
#54=COLOUR_RGB('',6.E-1,3.3E-1,2.E-1);
#55=COLOUR_RGB('',6.E-1,6.E-1,0.E0);
#56=COLOUR_RGB('',6.E-1,6.E-1,1.E0);
#57=COLOUR_RGB('',6.E-1,1.E0,6.E-1);
#58=COLOUR_RGB('',6.E-1,1.E0,1.E0);
#59=COLOUR_RGB('',6.7E-1,0.E0,0.E0);
#60=COLOUR_RGB('',6.7E-1,0.E0,5.3E-1);
#61=COLOUR_RGB('',6.7E-1,4.E-1,2.7E-1);
#62=COLOUR_RGB('',6.7E-1,4.E-1,1.E0);
#63=COLOUR_RGB('',6.7E-1,6.7E-1,1.E0);
#64=COLOUR_RGB('',6.7E-1,1.E0,0.E0);
#65=COLOUR_RGB('',7.3E-1,2.7E-1,1.E0);
#66=COLOUR_RGB('',7.3E-1,4.E-1,0.E0);
#67=COLOUR_RGB('',7.3E-1,4.7E-1,3.3E-1);
#68=COLOUR_RGB('',7.3E-1,7.3E-1,7.3E-1);
#69=COLOUR_RGB('',8.E-1,0.E0,8.E-1);
#70=COLOUR_RGB('',8.E-1,5.3E-1,4.E-1);
#71=COLOUR_RGB('',8.E-1,6.E-1,1.E0);
#72=COLOUR_RGB('',8.E-1,8.E-1,0.E0);
#73=COLOUR_RGB('',8.E-1,8.E-1,1.E0);
#74=COLOUR_RGB('',8.E-1,1.E0,8.E-1);
#75=COLOUR_RGB('',8.E-1,1.E0,1.E0);
#76=COLOUR_RGB('',8.7E-1,0.E0,0.E0);
#77=COLOUR_RGB('',8.7E-1,6.E-1,4.7E-1);
#78=COLOUR_RGB('',9.3E-1,0.E0,9.3E-1);
#79=COLOUR_RGB('',9.3E-1,6.7E-1,5.3E-1);
#80=COLOUR_RGB('',9.3E-1,8.E-1,1.E0);
#81=COLOUR_RGB('',9.3E-1,9.3E-1,0.E0);
#82=COLOUR_RGB('',9.3E-1,1.E0,9.3E-1);
#83=COLOUR_RGB('',9.3E-1,1.E0,1.E0);
#84=DRAUGHTING_PRE_DEFINED_COLOUR('red');
#85=COLOUR_RGB('',1.E0,0.E0,2.7E-1);
#86=COLOUR_RGB('',1.E0,0.E0,4.7E-1);
#87=DRAUGHTING_PRE_DEFINED_COLOUR('magenta');
#88=COLOUR_RGB('',1.E0,7.E-2,7.E-2);
#89=COLOUR_RGB('',1.E0,2.E-1,1.E0);
#90=COLOUR_RGB('',1.E0,2.7E-1,0.E0);
#91=COLOUR_RGB('',1.E0,2.7E-1,2.7E-1);
#92=COLOUR_RGB('',1.E0,4.E-1,1.E0);
#93=COLOUR_RGB('',1.E0,4.7E-1,0.E0);
#94=COLOUR_RGB('',1.E0,4.7E-1,4.7E-1);
#95=COLOUR_RGB('',1.E0,4.7E-1,5.3E-1);
#96=COLOUR_RGB('',1.E0,6.E-1,1.E0);
#97=COLOUR_RGB('',1.E0,6.7E-1,0.E0);
#98=COLOUR_RGB('',1.E0,6.7E-1,6.7E-1);
#99=COLOUR_RGB('',1.E0,7.3E-1,5.3E-1);
#100=COLOUR_RGB('',1.E0,7.3E-1,6.E-1);
#101=COLOUR_RGB('',1.E0,8.E-1,8.E-1);
#102=COLOUR_RGB('',1.E0,8.E-1,1.E0);
#103=COLOUR_RGB('',1.E0,8.7E-1,0.E0);
#104=COLOUR_RGB('',1.E0,9.3E-1,9.3E-1);
#105=COLOUR_RGB('',1.E0,9.3E-1,1.E0);
#106=DRAUGHTING_PRE_DEFINED_COLOUR('yellow');
#107=COLOUR_RGB('',1.E0,1.E0,1.3E-1);
#108=COLOUR_RGB('',1.E0,1.E0,3.3E-1);
#109=COLOUR_RGB('',1.E0,1.E0,5.3E-1);
#110=COLOUR_RGB('',1.E0,1.E0,7.3E-1);
#111=COLOUR_RGB('',1.E0,1.E0,9.3E-1);
#112=CARTESIAN_POINT('',(0.E0,0.E0,0.E0));
#113=DIRECTION('',(0.E0,1.E0,0.E0));
#114=DIRECTION('',(0.E0,0.E0,-1.E0));
#115=AXIS2_PLACEMENT_3D('',#112,#113,#114);
#117=CARTESIAN_POINT('',(0.E0,0.E0,0.E0));
#118=DIRECTION('',(0.E0,-1.E0,0.E0));
#119=DIRECTION('',(0.E0,0.E0,-1.E0));
#120=AXIS2_PLACEMENT_3D('',#117,#118,#119);
#122=CARTESIAN_POINT('',(0.E0,0.E0,0.E0));
#123=DIRECTION('',(0.E0,-1.E0,0.E0));
#124=DIRECTION('',(0.E0,0.E0,-1.E0));
#125=AXIS2_PLACEMENT_3D('',#122,#123,#124);
#127=DIRECTION('',(0.E0,1.E0,0.E0));
#128=VECTOR('',#127,1.E0);
#129=CARTESIAN_POINT('',(0.E0,0.E0,-3.1E-1));
#130=LINE('',#129,#128);
#131=DIRECTION('',(0.E0,1.E0,0.E0));
#132=VECTOR('',#131,1.E0);
#133=CARTESIAN_POINT('',(0.E0,0.E0,3.1E-1));
#134=LINE('',#133,#132);
#135=CARTESIAN_POINT('',(0.E0,0.E0,0.E0));
#136=DIRECTION('',(0.E0,1.E0,0.E0));
#137=DIRECTION('',(0.E0,0.E0,-1.E0));
#138=AXIS2_PLACEMENT_3D('',#135,#136,#137);
#140=CARTESIAN_POINT('',(0.E0,1.E0,0.E0));
#141=DIRECTION('',(0.E0,1.E0,0.E0));
#142=DIRECTION('',(0.E0,0.E0,-1.E0));
#143=AXIS2_PLACEMENT_3D('',#140,#141,#142);
#145=CARTESIAN_POINT('',(0.E0,1.E0,0.E0));
#146=DIRECTION('',(0.E0,-1.E0,0.E0));
#147=DIRECTION('',(0.E0,0.E0,-1.E0));
#148=AXIS2_PLACEMENT_3D('',#145,#146,#147);
#150=CARTESIAN_POINT('',(0.E0,1.E0,0.E0));
#151=DIRECTION('',(0.E0,1.E0,0.E0));
#152=DIRECTION('',(0.E0,0.E0,-1.E0));
#153=AXIS2_PLACEMENT_3D('',#150,#151,#152);
#155=CARTESIAN_POINT('',(0.E0,1.E0,0.E0));
#156=DIRECTION('',(0.E0,1.E0,0.E0));
#157=DIRECTION('',(0.E0,0.E0,1.E0));
#158=AXIS2_PLACEMENT_3D('',#155,#156,#157);
#160=DIRECTION('',(0.E0,-1.E0,0.E0));
#161=VECTOR('',#160,2.81E-1);
#162=CARTESIAN_POINT('',(0.E0,1.E0,-2.03E-1));
#163=LINE('',#162,#161);
#164=DIRECTION('',(0.E0,-1.E0,0.E0));
#165=VECTOR('',#164,2.81E-1);
#166=CARTESIAN_POINT('',(0.E0,1.E0,2.03E-1));
#167=LINE('',#166,#165);
#168=CARTESIAN_POINT('',(0.E0,7.19E-1,0.E0));
#169=DIRECTION('',(0.E0,1.E0,0.E0));
#170=DIRECTION('',(0.E0,0.E0,-1.E0));
#171=AXIS2_PLACEMENT_3D('',#168,#169,#170);
#173=CARTESIAN_POINT('',(0.E0,7.19E-1,0.E0));
#174=DIRECTION('',(0.E0,1.E0,0.E0));
#175=DIRECTION('',(0.E0,0.E0,1.E0));
#176=AXIS2_PLACEMENT_3D('',#173,#174,#175);
#178=CARTESIAN_POINT('',(0.E0,7.19E-1,0.E0));
#179=DIRECTION('',(0.E0,-1.E0,0.E0));
#180=DIRECTION('',(0.E0,0.E0,-1.E0));
#181=AXIS2_PLACEMENT_3D('',#178,#179,#180);
#183=CARTESIAN_POINT('',(0.E0,7.19E-1,0.E0));
#184=DIRECTION('',(0.E0,-1.E0,0.E0));
#185=DIRECTION('',(0.E0,0.E0,1.E0));
#186=AXIS2_PLACEMENT_3D('',#183,#184,#185);
#188=DIRECTION('',(0.E0,-1.E0,0.E0));
#189=VECTOR('',#188,7.19E-1);
#190=CARTESIAN_POINT('',(0.E0,7.19E-1,-1.405E-1));
#191=LINE('',#190,#189);
#192=DIRECTION('',(0.E0,-1.E0,0.E0));
#193=VECTOR('',#192,7.19E-1);
#194=CARTESIAN_POINT('',(0.E0,7.19E-1,1.405E-1));
#195=LINE('',#194,#193);
#196=CARTESIAN_POINT('',(0.E0,0.E0,-3.1E-1));
#197=CARTESIAN_POINT('',(0.E0,1.E0,-3.1E-1));
#198=VERTEX_POINT('',#196);
#199=VERTEX_POINT('',#197);
#200=CARTESIAN_POINT('',(0.E0,0.E0,3.1E-1));
#201=CARTESIAN_POINT('',(0.E0,1.E0,3.1E-1));
#202=VERTEX_POINT('',#200);
#203=VERTEX_POINT('',#201);
#204=CARTESIAN_POINT('',(0.E0,0.E0,-1.405E-1));
#205=CARTESIAN_POINT('',(0.E0,0.E0,1.405E-1));
#206=VERTEX_POINT('',#204);
#207=VERTEX_POINT('',#205);
#208=CARTESIAN_POINT('',(0.E0,7.19E-1,-2.03E-1));
#209=CARTESIAN_POINT('',(0.E0,7.19E-1,2.03E-1));
#210=VERTEX_POINT('',#208);
#211=VERTEX_POINT('',#209);
#212=CARTESIAN_POINT('',(0.E0,1.E0,-2.03E-1));
#213=CARTESIAN_POINT('',(0.E0,1.E0,2.03E-1));
#214=VERTEX_POINT('',#212);
#215=VERTEX_POINT('',#213);
#216=CARTESIAN_POINT('',(0.E0,7.19E-1,-1.405E-1));
#217=CARTESIAN_POINT('',(0.E0,7.19E-1,1.405E-1));
#218=VERTEX_POINT('',#216);
#219=VERTEX_POINT('',#217);
#220=CARTESIAN_POINT('',(0.E0,0.E0,0.E0));
#221=DIRECTION('',(0.E0,-1.E0,0.E0));
#222=DIRECTION('',(0.E0,0.E0,1.E0));
#223=AXIS2_PLACEMENT_3D('',#220,#221,#222);
#224=PLANE('',#223);
#226=ORIENTED_EDGE('',*,*,#225,.F.);
#228=ORIENTED_EDGE('',*,*,#227,.T.);
#229=EDGE_LOOP('',(#226,#228));
#230=FACE_OUTER_BOUND('',#229,.F.);
#232=ORIENTED_EDGE('',*,*,#231,.F.);
#234=ORIENTED_EDGE('',*,*,#233,.T.);
#235=EDGE_LOOP('',(#232,#234));
#236=FACE_BOUND('',#235,.F.);
#237=ADVANCED_FACE('',(#230,#236),#224,.T.);
#238=CARTESIAN_POINT('',(0.E0,1.05E0,0.E0));
#239=DIRECTION('',(0.E0,-1.E0,0.E0));
#240=DIRECTION('',(0.E0,0.E0,1.E0));
#241=AXIS2_PLACEMENT_3D('',#238,#239,#240);
#242=CYLINDRICAL_SURFACE('',#241,3.1E-1);
#244=ORIENTED_EDGE('',*,*,#243,.F.);
#245=ORIENTED_EDGE('',*,*,#225,.T.);
#247=ORIENTED_EDGE('',*,*,#246,.T.);
#249=ORIENTED_EDGE('',*,*,#248,.F.);
#250=EDGE_LOOP('',(#244,#245,#247,#249));
#251=FACE_OUTER_BOUND('',#250,.F.);
#252=ADVANCED_FACE('',(#251),#242,.T.);
#253=CARTESIAN_POINT('',(0.E0,1.05E0,0.E0));
#254=DIRECTION('',(0.E0,-1.E0,0.E0));
#255=DIRECTION('',(0.E0,0.E0,1.E0));
#256=AXIS2_PLACEMENT_3D('',#253,#254,#255);
#257=CYLINDRICAL_SURFACE('',#256,3.1E-1);
#258=ORIENTED_EDGE('',*,*,#243,.T.);
#260=ORIENTED_EDGE('',*,*,#259,.T.);
#261=ORIENTED_EDGE('',*,*,#246,.F.);
#262=ORIENTED_EDGE('',*,*,#227,.F.);
#263=EDGE_LOOP('',(#258,#260,#261,#262));
#264=FACE_OUTER_BOUND('',#263,.F.);
#265=ADVANCED_FACE('',(#264),#257,.T.);
#266=CARTESIAN_POINT('',(0.E0,1.E0,0.E0));
#267=DIRECTION('',(0.E0,-1.E0,0.E0));
#268=DIRECTION('',(0.E0,0.E0,1.E0));
#269=AXIS2_PLACEMENT_3D('',#266,#267,#268);
#270=PLANE('',#269);
#271=ORIENTED_EDGE('',*,*,#259,.F.);
#272=ORIENTED_EDGE('',*,*,#248,.T.);
#273=EDGE_LOOP('',(#271,#272));
#274=FACE_OUTER_BOUND('',#273,.F.);
#276=ORIENTED_EDGE('',*,*,#275,.T.);
#278=ORIENTED_EDGE('',*,*,#277,.T.);
#279=EDGE_LOOP('',(#276,#278));
#280=FACE_BOUND('',#279,.F.);
#281=ADVANCED_FACE('',(#274,#280),#270,.F.);
#282=CARTESIAN_POINT('',(0.E0,1.E0,0.E0));
#283=DIRECTION('',(0.E0,1.E0,0.E0));
#284=DIRECTION('',(0.E0,0.E0,-1.E0));
#285=AXIS2_PLACEMENT_3D('',#282,#283,#284);
#286=CYLINDRICAL_SURFACE('',#285,2.03E-1);
#287=ORIENTED_EDGE('',*,*,#275,.F.);
#289=ORIENTED_EDGE('',*,*,#288,.T.);
#291=ORIENTED_EDGE('',*,*,#290,.T.);
#293=ORIENTED_EDGE('',*,*,#292,.F.);
#294=EDGE_LOOP('',(#287,#289,#291,#293));
#295=FACE_OUTER_BOUND('',#294,.F.);
#296=ADVANCED_FACE('',(#295),#286,.F.);
#297=CARTESIAN_POINT('',(0.E0,1.E0,0.E0));
#298=DIRECTION('',(0.E0,1.E0,0.E0));
#299=DIRECTION('',(0.E0,0.E0,-1.E0));
#300=AXIS2_PLACEMENT_3D('',#297,#298,#299);
#301=CYLINDRICAL_SURFACE('',#300,2.03E-1);
#302=ORIENTED_EDGE('',*,*,#277,.F.);
#303=ORIENTED_EDGE('',*,*,#292,.T.);
#305=ORIENTED_EDGE('',*,*,#304,.T.);
#306=ORIENTED_EDGE('',*,*,#288,.F.);
#307=EDGE_LOOP('',(#302,#303,#305,#306));
#308=FACE_OUTER_BOUND('',#307,.F.);
#309=ADVANCED_FACE('',(#308),#301,.F.);
#310=CARTESIAN_POINT('',(0.E0,7.19E-1,0.E0));
#311=DIRECTION('',(0.E0,1.E0,0.E0));
#312=DIRECTION('',(0.E0,0.E0,-1.E0));
#313=AXIS2_PLACEMENT_3D('',#310,#311,#312);
#314=PLANE('',#313);
#315=ORIENTED_EDGE('',*,*,#290,.F.);
#316=ORIENTED_EDGE('',*,*,#304,.F.);
#317=EDGE_LOOP('',(#315,#316));
#318=FACE_OUTER_BOUND('',#317,.F.);
#320=ORIENTED_EDGE('',*,*,#319,.F.);
#322=ORIENTED_EDGE('',*,*,#321,.F.);
#323=EDGE_LOOP('',(#320,#322));
#324=FACE_BOUND('',#323,.F.);
#325=ADVANCED_FACE('',(#318,#324),#314,.T.);
#326=CARTESIAN_POINT('',(0.E0,1.05E0,0.E0));
#327=DIRECTION('',(0.E0,-1.E0,0.E0));
#328=DIRECTION('',(0.E0,0.E0,1.E0));
#329=AXIS2_PLACEMENT_3D('',#326,#327,#328);
#330=CYLINDRICAL_SURFACE('',#329,1.405E-1);
#331=ORIENTED_EDGE('',*,*,#319,.T.);
#333=ORIENTED_EDGE('',*,*,#332,.T.);
#334=ORIENTED_EDGE('',*,*,#233,.F.);
#336=ORIENTED_EDGE('',*,*,#335,.F.);
#337=EDGE_LOOP('',(#331,#333,#334,#336));
#338=FACE_OUTER_BOUND('',#337,.F.);
#339=ADVANCED_FACE('',(#338),#330,.F.);
#340=CARTESIAN_POINT('',(0.E0,1.05E0,0.E0));
#341=DIRECTION('',(0.E0,-1.E0,0.E0));
#342=DIRECTION('',(0.E0,0.E0,1.E0));
#343=AXIS2_PLACEMENT_3D('',#340,#341,#342);
#344=CYLINDRICAL_SURFACE('',#343,1.405E-1);
#345=ORIENTED_EDGE('',*,*,#321,.T.);
#346=ORIENTED_EDGE('',*,*,#335,.T.);
#347=ORIENTED_EDGE('',*,*,#231,.T.);
#348=ORIENTED_EDGE('',*,*,#332,.F.);
#349=EDGE_LOOP('',(#345,#346,#347,#348));
#350=FACE_OUTER_BOUND('',#349,.F.);
#351=ADVANCED_FACE('',(#350),#344,.F.);
#352=CLOSED_SHELL('',(#237,#252,#265,#281,#296,#309,#325,#339,#351));
#353=MANIFOLD_SOLID_BREP('',#352);
#354=DIMENSIONAL_EXPONENTS(1.E0,0.E0,0.E0,0.E0,0.E0,0.E0,0.E0);
#355=(LENGTH_UNIT()NAMED_UNIT(*)SI_UNIT(.MILLI.,.METRE.));
#356=LENGTH_MEASURE_WITH_UNIT(LENGTH_MEASURE(2.54E1),#355);
#357=(CONVERSION_BASED_UNIT('INCH',#356)LENGTH_UNIT()NAMED_UNIT(#354));
#358=DIMENSIONAL_EXPONENTS(0.E0,0.E0,0.E0,0.E0,0.E0,0.E0,0.E0);
#359=(NAMED_UNIT(*)PLANE_ANGLE_UNIT()SI_UNIT($,.RADIAN.));
#360=PLANE_ANGLE_MEASURE_WITH_UNIT(PLANE_ANGLE_MEASURE(1.745329251994E-2),#359);
#361=(CONVERSION_BASED_UNIT('DEGREE',#360)NAMED_UNIT(#358)PLANE_ANGLE_UNIT());
#362=(NAMED_UNIT(*)SI_UNIT($,.STERADIAN.)SOLID_ANGLE_UNIT());
#363=UNCERTAINTY_MEASURE_WITH_UNIT(LENGTH_MEASURE(1.330147328119E-4),#357,
'distance_accuracy_value',
'Maximum model space distance between geometric entities at asserted connectivities');
#364=(GEOMETRIC_REPRESENTATION_CONTEXT(3)GLOBAL_UNCERTAINTY_ASSIGNED_CONTEXT((
#363))GLOBAL_UNIT_ASSIGNED_CONTEXT((#357,#361,#362))REPRESENTATION_CONTEXT
('ID1','3'));
#366=APPLICATION_CONTEXT('automotive_design');
#367=APPLICATION_PROTOCOL_DEFINITION('draft international standard',
'automotive_design',1998,#366);
#368=PRODUCT_DEFINITION_CONTEXT('part definition',#366,'design');
#369=PRODUCT_CONTEXT('',#366,'mechanical');
#370=PRODUCT('ILC66056205','ILC66056205','NOT SPECIFIED',(#369));
#371=PRODUCT_DEFINITION_FORMATION_WITH_SPECIFIED_SOURCE('','LAST_VERSION',#370,
.MADE.);
#375=PRODUCT_TYPE('part','',(#370));
#116=CIRCLE('',#115,1.405E-1);
#121=CIRCLE('',#120,1.405E-1);
#126=CIRCLE('',#125,3.1E-1);
#139=CIRCLE('',#138,3.1E-1);
#144=CIRCLE('',#143,3.1E-1);
#149=CIRCLE('',#148,3.1E-1);
#154=CIRCLE('',#153,2.03E-1);
#159=CIRCLE('',#158,2.03E-1);
#172=CIRCLE('',#171,2.03E-1);
#177=CIRCLE('',#176,2.03E-1);
#182=CIRCLE('',#181,1.405E-1);
#187=CIRCLE('',#186,1.405E-1);
#225=EDGE_CURVE('',#198,#202,#126,.T.);
#227=EDGE_CURVE('',#198,#202,#139,.T.);
#231=EDGE_CURVE('',#206,#207,#116,.T.);
#233=EDGE_CURVE('',#206,#207,#121,.T.);
#243=EDGE_CURVE('',#198,#199,#130,.T.);
#246=EDGE_CURVE('',#202,#203,#134,.T.);
#248=EDGE_CURVE('',#199,#203,#149,.T.);
#259=EDGE_CURVE('',#199,#203,#144,.T.);
#275=EDGE_CURVE('',#214,#215,#154,.T.);
#277=EDGE_CURVE('',#215,#214,#159,.T.);
#288=EDGE_CURVE('',#214,#210,#163,.T.);
#290=EDGE_CURVE('',#210,#211,#172,.T.);
#292=EDGE_CURVE('',#215,#211,#167,.T.);
#304=EDGE_CURVE('',#211,#210,#177,.T.);
#319=EDGE_CURVE('',#218,#219,#182,.T.);
#321=EDGE_CURVE('',#219,#218,#187,.T.);
#332=EDGE_CURVE('',#219,#207,#195,.T.);
#335=EDGE_CURVE('',#218,#206,#191,.T.);
#365=ADVANCED_BREP_SHAPE_REPRESENTATION('',(#353),#364);
#372=PRODUCT_DEFINITION('part definition','',#371,#368);
#373=PRODUCT_DEFINITION_SHAPE('','SHAPE FOR ILC66056205.',#372);
#374=SHAPE_DEFINITION_REPRESENTATION(#373,#365);
ENDSEC;
END-ISO-10303-21;
