ISO-10303-21;
HEADER;
FILE_DESCRIPTION((''),'2;1');
FILE_NAME('ILC81070701','2020-11-24T',('Asawyer'),(''),
'PRO/ENGINEER BY PARAMETRIC TECHNOLOGY CORPORATION, 2013320',
'PRO/ENGINEER BY PARAMETRIC TECHNOLOGY CORPORATION, 2013320','');
FILE_SCHEMA(('CONFIG_CONTROL_DESIGN'));
ENDSEC;
DATA;
#1=CARTESIAN_POINT('',(0.E0,0.E0,0.E0));
#2=DIRECTION('',(0.E0,0.E0,-1.E0));
#3=DIRECTION('',(1.E0,0.E0,0.E0));
#4=AXIS2_PLACEMENT_3D('',#1,#2,#3);
#6=CARTESIAN_POINT('',(0.E0,0.E0,0.E0));
#7=DIRECTION('',(0.E0,0.E0,-1.E0));
#8=DIRECTION('',(-1.E0,0.E0,0.E0));
#9=AXIS2_PLACEMENT_3D('',#6,#7,#8);
#11=CARTESIAN_POINT('',(0.E0,0.E0,0.E0));
#12=DIRECTION('',(0.E0,0.E0,-1.E0));
#13=DIRECTION('',(1.E0,0.E0,0.E0));
#14=AXIS2_PLACEMENT_3D('',#11,#12,#13);
#16=CARTESIAN_POINT('',(0.E0,0.E0,0.E0));
#17=DIRECTION('',(0.E0,0.E0,-1.E0));
#18=DIRECTION('',(-1.E0,0.E0,0.E0));
#19=AXIS2_PLACEMENT_3D('',#16,#17,#18);
#21=CARTESIAN_POINT('',(0.E0,0.E0,3.E-2));
#22=DIRECTION('',(0.E0,0.E0,-1.E0));
#23=DIRECTION('',(1.E0,0.E0,0.E0));
#24=AXIS2_PLACEMENT_3D('',#21,#22,#23);
#26=DIRECTION('',(0.E0,0.E0,-1.E0));
#27=VECTOR('',#26,3.E-2);
#28=CARTESIAN_POINT('',(-1.95E-1,0.E0,3.E-2));
#29=LINE('',#28,#27);
#30=CARTESIAN_POINT('',(0.E0,0.E0,3.E-2));
#31=DIRECTION('',(0.E0,0.E0,1.E0));
#32=DIRECTION('',(1.E0,0.E0,0.E0));
#33=AXIS2_PLACEMENT_3D('',#30,#31,#32);
#35=DIRECTION('',(0.E0,0.E0,-1.E0));
#36=VECTOR('',#35,3.E-2);
#37=CARTESIAN_POINT('',(1.95E-1,0.E0,3.E-2));
#38=LINE('',#37,#36);
#39=CARTESIAN_POINT('',(0.E0,0.E0,3.E-2));
#40=DIRECTION('',(0.E0,0.E0,-1.E0));
#41=DIRECTION('',(1.E0,0.E0,0.E0));
#42=AXIS2_PLACEMENT_3D('',#39,#40,#41);
#44=CARTESIAN_POINT('',(0.E0,0.E0,3.E-2));
#45=DIRECTION('',(0.E0,0.E0,1.E0));
#46=DIRECTION('',(1.E0,0.E0,0.E0));
#47=AXIS2_PLACEMENT_3D('',#44,#45,#46);
#49=CARTESIAN_POINT('',(0.E0,0.E0,1.2E-1));
#50=DIRECTION('',(0.E0,0.E0,-1.E0));
#51=DIRECTION('',(1.E0,0.E0,0.E0));
#52=AXIS2_PLACEMENT_3D('',#49,#50,#51);
#54=DIRECTION('',(0.E0,0.E0,-1.E0));
#55=VECTOR('',#54,9.E-2);
#56=CARTESIAN_POINT('',(3.3E-1,0.E0,1.2E-1));
#57=LINE('',#56,#55);
#58=DIRECTION('',(0.E0,0.E0,-1.E0));
#59=VECTOR('',#58,9.E-2);
#60=CARTESIAN_POINT('',(-3.3E-1,0.E0,1.2E-1));
#61=LINE('',#60,#59);
#62=CARTESIAN_POINT('',(0.E0,0.E0,1.2E-1));
#63=DIRECTION('',(0.E0,0.E0,1.E0));
#64=DIRECTION('',(1.E0,0.E0,0.E0));
#65=AXIS2_PLACEMENT_3D('',#62,#63,#64);
#67=DIRECTION('',(-8.660254037844E-1,0.E0,-5.E-1));
#68=VECTOR('',#67,1.905255888326E-1);
#69=CARTESIAN_POINT('',(4.95E-1,0.E0,2.152627944163E-1));
#70=LINE('',#69,#68);
#71=DIRECTION('',(8.660254037844E-1,0.E0,-5.E-1));
#72=VECTOR('',#71,1.905255888326E-1);
#73=CARTESIAN_POINT('',(-4.95E-1,0.E0,2.152627944163E-1));
#74=LINE('',#73,#72);
#75=CARTESIAN_POINT('',(0.E0,0.E0,2.152627944163E-1));
#76=DIRECTION('',(0.E0,0.E0,1.E0));
#77=DIRECTION('',(1.E0,0.E0,0.E0));
#78=AXIS2_PLACEMENT_3D('',#75,#76,#77);
#80=CARTESIAN_POINT('',(0.E0,0.E0,2.152627944163E-1));
#81=DIRECTION('',(0.E0,0.E0,-1.E0));
#82=DIRECTION('',(1.E0,0.E0,0.E0));
#83=AXIS2_PLACEMENT_3D('',#80,#81,#82);
#85=CARTESIAN_POINT('',(0.E0,0.E0,2.672243186434E-1));
#86=DIRECTION('',(0.E0,0.E0,-1.E0));
#87=DIRECTION('',(1.E0,0.E0,0.E0));
#88=AXIS2_PLACEMENT_3D('',#85,#86,#87);
#90=CARTESIAN_POINT('',(4.65E-1,0.E0,2.672243186434E-1));
#91=DIRECTION('',(0.E0,1.E0,0.E0));
#92=DIRECTION('',(1.E0,0.E0,0.E0));
#93=AXIS2_PLACEMENT_3D('',#90,#91,#92);
#95=CARTESIAN_POINT('',(-4.65E-1,0.E0,2.672243186434E-1));
#96=DIRECTION('',(0.E0,-1.E0,0.E0));
#97=DIRECTION('',(-1.E0,0.E0,0.E0));
#98=AXIS2_PLACEMENT_3D('',#95,#96,#97);
#100=CARTESIAN_POINT('',(0.E0,0.E0,2.672243186434E-1));
#101=DIRECTION('',(0.E0,0.E0,1.E0));
#102=DIRECTION('',(1.E0,0.E0,0.E0));
#103=AXIS2_PLACEMENT_3D('',#100,#101,#102);
#105=DIRECTION('',(0.E0,0.E0,-1.E0));
#106=VECTOR('',#105,2.327756813566E-1);
#107=CARTESIAN_POINT('',(5.25E-1,0.E0,5.E-1));
#108=LINE('',#107,#106);
#109=DIRECTION('',(0.E0,0.E0,-1.E0));
#110=VECTOR('',#109,2.327756813566E-1);
#111=CARTESIAN_POINT('',(-5.25E-1,0.E0,5.E-1));
#112=LINE('',#111,#110);
#113=CARTESIAN_POINT('',(0.E0,0.E0,5.E-1));
#114=DIRECTION('',(0.E0,0.E0,1.E0));
#115=DIRECTION('',(1.E0,0.E0,0.E0));
#116=AXIS2_PLACEMENT_3D('',#113,#114,#115);
#118=CARTESIAN_POINT('',(0.E0,0.E0,5.E-1));
#119=DIRECTION('',(0.E0,0.E0,1.E0));
#120=DIRECTION('',(-1.E0,0.E0,0.E0));
#121=AXIS2_PLACEMENT_3D('',#118,#119,#120);
#123=CARTESIAN_POINT('',(0.E0,0.E0,5.E-1));
#124=DIRECTION('',(0.E0,0.E0,-1.E0));
#125=DIRECTION('',(1.E0,0.E0,0.E0));
#126=AXIS2_PLACEMENT_3D('',#123,#124,#125);
#128=CARTESIAN_POINT('',(0.E0,0.E0,5.E-1));
#129=DIRECTION('',(0.E0,0.E0,-1.E0));
#130=DIRECTION('',(-1.E0,0.E0,0.E0));
#131=AXIS2_PLACEMENT_3D('',#128,#129,#130);
#133=DIRECTION('',(0.E0,0.E0,1.E0));
#134=VECTOR('',#133,3.E-1);
#135=CARTESIAN_POINT('',(5.55E-1,0.E0,2.E-1));
#136=LINE('',#135,#134);
#137=CARTESIAN_POINT('',(0.E0,0.E0,2.E-1));
#138=DIRECTION('',(0.E0,0.E0,1.E0));
#139=DIRECTION('',(1.E0,0.E0,0.E0));
#140=AXIS2_PLACEMENT_3D('',#137,#138,#139);
#142=DIRECTION('',(-8.660254037844E-1,0.E0,5.E-1));
#143=VECTOR('',#142,1.905255888326E-1);
#144=CARTESIAN_POINT('',(-3.9E-1,0.E0,1.047372055837E-1));
#145=LINE('',#144,#143);
#146=CARTESIAN_POINT('',(0.E0,0.E0,1.047372055837E-1));
#147=DIRECTION('',(0.E0,0.E0,1.E0));
#148=DIRECTION('',(1.E0,0.E0,0.E0));
#149=AXIS2_PLACEMENT_3D('',#146,#147,#148);
#151=DIRECTION('',(8.660254037844E-1,0.E0,5.E-1));
#152=VECTOR('',#151,1.905255888326E-1);
#153=CARTESIAN_POINT('',(3.9E-1,0.E0,1.047372055837E-1));
#154=LINE('',#153,#152);
#155=CARTESIAN_POINT('',(0.E0,0.E0,2.E-1));
#156=DIRECTION('',(0.E0,0.E0,1.E0));
#157=DIRECTION('',(-1.E0,0.E0,0.E0));
#158=AXIS2_PLACEMENT_3D('',#155,#156,#157);
#160=CARTESIAN_POINT('',(0.E0,0.E0,1.047372055837E-1));
#161=DIRECTION('',(0.E0,0.E0,-1.E0));
#162=DIRECTION('',(1.E0,0.E0,0.E0));
#163=AXIS2_PLACEMENT_3D('',#160,#161,#162);
#165=DIRECTION('',(0.E0,0.E0,1.E0));
#166=VECTOR('',#165,3.E-1);
#167=CARTESIAN_POINT('',(-5.55E-1,0.E0,2.E-1));
#168=LINE('',#167,#166);
#169=CARTESIAN_POINT('',(0.E0,0.E0,5.277568135665E-2));
#170=DIRECTION('',(0.E0,0.E0,-1.E0));
#171=DIRECTION('',(1.E0,0.E0,0.E0));
#172=AXIS2_PLACEMENT_3D('',#169,#170,#171);
#174=CARTESIAN_POINT('',(4.2E-1,0.E0,5.277568135665E-2));
#175=DIRECTION('',(0.E0,1.E0,0.E0));
#176=DIRECTION('',(-1.E0,0.E0,0.E0));
#177=AXIS2_PLACEMENT_3D('',#174,#175,#176);
#179=CARTESIAN_POINT('',(-4.2E-1,0.E0,5.277568135665E-2));
#180=DIRECTION('',(0.E0,-1.E0,0.E0));
#181=DIRECTION('',(1.E0,0.E0,0.E0));
#182=AXIS2_PLACEMENT_3D('',#179,#180,#181);
#184=CARTESIAN_POINT('',(0.E0,0.E0,5.277568135665E-2));
#185=DIRECTION('',(0.E0,0.E0,1.E0));
#186=DIRECTION('',(1.E0,0.E0,0.E0));
#187=AXIS2_PLACEMENT_3D('',#184,#185,#186);
#189=DIRECTION('',(0.E0,0.E0,1.E0));
#190=VECTOR('',#189,5.277568135665E-2);
#191=CARTESIAN_POINT('',(3.6E-1,0.E0,0.E0));
#192=LINE('',#191,#190);
#193=DIRECTION('',(0.E0,0.E0,1.E0));
#194=VECTOR('',#193,5.277568135665E-2);
#195=CARTESIAN_POINT('',(-3.6E-1,0.E0,0.E0));
#196=LINE('',#195,#194);
#197=CARTESIAN_POINT('',(5.55E-1,0.E0,5.E-1));
#198=CARTESIAN_POINT('',(-5.55E-1,0.E0,5.E-1));
#199=VERTEX_POINT('',#197);
#200=VERTEX_POINT('',#198);
#201=CARTESIAN_POINT('',(5.25E-1,0.E0,2.672243186434E-1));
#202=CARTESIAN_POINT('',(4.95E-1,0.E0,2.152627944163E-1));
#203=VERTEX_POINT('',#201);
#204=VERTEX_POINT('',#202);
#205=CARTESIAN_POINT('',(3.3E-1,0.E0,1.2E-1));
#206=VERTEX_POINT('',#205);
#207=CARTESIAN_POINT('',(3.3E-1,0.E0,3.E-2));
#208=VERTEX_POINT('',#207);
#209=CARTESIAN_POINT('',(-5.25E-1,0.E0,2.672243186434E-1));
#210=CARTESIAN_POINT('',(-4.95E-1,0.E0,2.152627944163E-1));
#211=VERTEX_POINT('',#209);
#212=VERTEX_POINT('',#210);
#213=CARTESIAN_POINT('',(-3.3E-1,0.E0,1.2E-1));
#214=VERTEX_POINT('',#213);
#215=CARTESIAN_POINT('',(-3.3E-1,0.E0,3.E-2));
#216=VERTEX_POINT('',#215);
#217=CARTESIAN_POINT('',(1.95E-1,0.E0,3.E-2));
#218=CARTESIAN_POINT('',(-1.95E-1,0.E0,3.E-2));
#219=VERTEX_POINT('',#217);
#220=VERTEX_POINT('',#218);
#221=CARTESIAN_POINT('',(1.95E-1,0.E0,0.E0));
#222=CARTESIAN_POINT('',(-1.95E-1,0.E0,0.E0));
#223=VERTEX_POINT('',#221);
#224=VERTEX_POINT('',#222);
#225=CARTESIAN_POINT('',(5.25E-1,0.E0,5.E-1));
#226=CARTESIAN_POINT('',(-5.25E-1,0.E0,5.E-1));
#227=VERTEX_POINT('',#225);
#228=VERTEX_POINT('',#226);
#229=CARTESIAN_POINT('',(3.6E-1,0.E0,5.277568135665E-2));
#230=CARTESIAN_POINT('',(3.9E-1,0.E0,1.047372055837E-1));
#231=VERTEX_POINT('',#229);
#232=VERTEX_POINT('',#230);
#233=CARTESIAN_POINT('',(-3.6E-1,0.E0,5.277568135665E-2));
#234=CARTESIAN_POINT('',(-3.9E-1,0.E0,1.047372055837E-1));
#235=VERTEX_POINT('',#233);
#236=VERTEX_POINT('',#234);
#237=CARTESIAN_POINT('',(3.6E-1,0.E0,0.E0));
#238=CARTESIAN_POINT('',(-3.6E-1,0.E0,0.E0));
#239=VERTEX_POINT('',#237);
#240=VERTEX_POINT('',#238);
#241=CARTESIAN_POINT('',(5.55E-1,0.E0,2.E-1));
#242=CARTESIAN_POINT('',(-5.55E-1,0.E0,2.E-1));
#243=VERTEX_POINT('',#241);
#244=VERTEX_POINT('',#242);
#245=CARTESIAN_POINT('',(0.E0,0.E0,0.E0));
#246=DIRECTION('',(0.E0,0.E0,1.E0));
#247=DIRECTION('',(1.E0,0.E0,0.E0));
#248=AXIS2_PLACEMENT_3D('',#245,#246,#247);
#249=PLANE('',#248);
#251=ORIENTED_EDGE('',*,*,#250,.F.);
#253=ORIENTED_EDGE('',*,*,#252,.F.);
#254=EDGE_LOOP('',(#251,#253));
#255=FACE_OUTER_BOUND('',#254,.F.);
#257=ORIENTED_EDGE('',*,*,#256,.T.);
#259=ORIENTED_EDGE('',*,*,#258,.T.);
#260=EDGE_LOOP('',(#257,#259));
#261=FACE_BOUND('',#260,.F.);
#262=ADVANCED_FACE('',(#255,#261),#249,.F.);
#263=CARTESIAN_POINT('',(0.E0,0.E0,5.25E-1));
#264=DIRECTION('',(0.E0,0.E0,-1.E0));
#265=DIRECTION('',(1.E0,0.E0,0.E0));
#266=AXIS2_PLACEMENT_3D('',#263,#264,#265);
#267=CYLINDRICAL_SURFACE('',#266,1.95E-1);
#268=ORIENTED_EDGE('',*,*,#256,.F.);
#270=ORIENTED_EDGE('',*,*,#269,.F.);
#272=ORIENTED_EDGE('',*,*,#271,.T.);
#274=ORIENTED_EDGE('',*,*,#273,.T.);
#275=EDGE_LOOP('',(#268,#270,#272,#274));
#276=FACE_OUTER_BOUND('',#275,.F.);
#277=ADVANCED_FACE('',(#276),#267,.F.);
#278=CARTESIAN_POINT('',(0.E0,0.E0,5.25E-1));
#279=DIRECTION('',(0.E0,0.E0,-1.E0));
#280=DIRECTION('',(1.E0,0.E0,0.E0));
#281=AXIS2_PLACEMENT_3D('',#278,#279,#280);
#282=CYLINDRICAL_SURFACE('',#281,1.95E-1);
#283=ORIENTED_EDGE('',*,*,#258,.F.);
#284=ORIENTED_EDGE('',*,*,#273,.F.);
#286=ORIENTED_EDGE('',*,*,#285,.F.);
#287=ORIENTED_EDGE('',*,*,#269,.T.);
#288=EDGE_LOOP('',(#283,#284,#286,#287));
#289=FACE_OUTER_BOUND('',#288,.F.);
#290=ADVANCED_FACE('',(#289),#282,.F.);
#291=CARTESIAN_POINT('',(0.E0,0.E0,3.E-2));
#292=DIRECTION('',(0.E0,0.E0,-1.E0));
#293=DIRECTION('',(1.E0,0.E0,0.E0));
#294=AXIS2_PLACEMENT_3D('',#291,#292,#293);
#295=PLANE('',#294);
#297=ORIENTED_EDGE('',*,*,#296,.T.);
#299=ORIENTED_EDGE('',*,*,#298,.F.);
#300=EDGE_LOOP('',(#297,#299));
#301=FACE_OUTER_BOUND('',#300,.F.);
#302=ORIENTED_EDGE('',*,*,#285,.T.);
#303=ORIENTED_EDGE('',*,*,#271,.F.);
#304=EDGE_LOOP('',(#302,#303));
#305=FACE_BOUND('',#304,.F.);
#306=ADVANCED_FACE('',(#301,#305),#295,.F.);
#307=CARTESIAN_POINT('',(0.E0,0.E0,5.25E-1));
#308=DIRECTION('',(0.E0,0.E0,-1.E0));
#309=DIRECTION('',(1.E0,0.E0,0.E0));
#310=AXIS2_PLACEMENT_3D('',#307,#308,#309);
#311=CYLINDRICAL_SURFACE('',#310,3.3E-1);
#313=ORIENTED_EDGE('',*,*,#312,.F.);
#315=ORIENTED_EDGE('',*,*,#314,.T.);
#317=ORIENTED_EDGE('',*,*,#316,.T.);
#318=ORIENTED_EDGE('',*,*,#296,.F.);
#319=EDGE_LOOP('',(#313,#315,#317,#318));
#320=FACE_OUTER_BOUND('',#319,.F.);
#321=ADVANCED_FACE('',(#320),#311,.F.);
#322=CARTESIAN_POINT('',(0.E0,0.E0,5.25E-1));
#323=DIRECTION('',(0.E0,0.E0,-1.E0));
#324=DIRECTION('',(1.E0,0.E0,0.E0));
#325=AXIS2_PLACEMENT_3D('',#322,#323,#324);
#326=CYLINDRICAL_SURFACE('',#325,3.3E-1);
#327=ORIENTED_EDGE('',*,*,#312,.T.);
#328=ORIENTED_EDGE('',*,*,#298,.T.);
#329=ORIENTED_EDGE('',*,*,#316,.F.);
#331=ORIENTED_EDGE('',*,*,#330,.F.);
#332=EDGE_LOOP('',(#327,#328,#329,#331));
#333=FACE_OUTER_BOUND('',#332,.F.);
#334=ADVANCED_FACE('',(#333),#326,.F.);
#335=CARTESIAN_POINT('',(0.E0,0.E0,1.676313972081E-1));
#336=DIRECTION('',(0.E0,0.E0,1.E0));
#337=DIRECTION('',(-1.E0,0.E0,0.E0));
#338=AXIS2_PLACEMENT_3D('',#335,#336,#337);
#339=CONICAL_SURFACE('',#338,4.125E-1,6.E1);
#341=ORIENTED_EDGE('',*,*,#340,.T.);
#342=ORIENTED_EDGE('',*,*,#330,.T.);
#344=ORIENTED_EDGE('',*,*,#343,.F.);
#346=ORIENTED_EDGE('',*,*,#345,.F.);
#347=EDGE_LOOP('',(#341,#342,#344,#346));
#348=FACE_OUTER_BOUND('',#347,.F.);
#349=ADVANCED_FACE('',(#348),#339,.F.);
#350=CARTESIAN_POINT('',(0.E0,0.E0,1.676313972081E-1));
#351=DIRECTION('',(0.E0,0.E0,1.E0));
#352=DIRECTION('',(-1.E0,0.E0,0.E0));
#353=AXIS2_PLACEMENT_3D('',#350,#351,#352);
#354=CONICAL_SURFACE('',#353,4.125E-1,6.E1);
#355=ORIENTED_EDGE('',*,*,#340,.F.);
#357=ORIENTED_EDGE('',*,*,#356,.T.);
#358=ORIENTED_EDGE('',*,*,#343,.T.);
#359=ORIENTED_EDGE('',*,*,#314,.F.);
#360=EDGE_LOOP('',(#355,#357,#358,#359));
#361=FACE_OUTER_BOUND('',#360,.F.);
#362=ADVANCED_FACE('',(#361),#354,.F.);
#363=CARTESIAN_POINT('',(0.E0,0.E0,2.672243186434E-1));
#364=DIRECTION('',(0.E0,0.E0,-1.E0));
#365=DIRECTION('',(1.E0,0.E0,0.E0));
#366=AXIS2_PLACEMENT_3D('',#363,#364,#365);
#367=TOROIDAL_SURFACE('',#366,4.65E-1,6.E-2);
#369=ORIENTED_EDGE('',*,*,#368,.F.);
#371=ORIENTED_EDGE('',*,*,#370,.T.);
#373=ORIENTED_EDGE('',*,*,#372,.T.);
#374=ORIENTED_EDGE('',*,*,#356,.F.);
#375=EDGE_LOOP('',(#369,#371,#373,#374));
#376=FACE_OUTER_BOUND('',#375,.F.);
#377=ADVANCED_FACE('',(#376),#367,.F.);
#378=CARTESIAN_POINT('',(0.E0,0.E0,2.672243186434E-1));
#379=DIRECTION('',(0.E0,0.E0,-1.E0));
#380=DIRECTION('',(1.E0,0.E0,0.E0));
#381=AXIS2_PLACEMENT_3D('',#378,#379,#380);
#382=TOROIDAL_SURFACE('',#381,4.65E-1,6.E-2);
#383=ORIENTED_EDGE('',*,*,#368,.T.);
#384=ORIENTED_EDGE('',*,*,#345,.T.);
#385=ORIENTED_EDGE('',*,*,#372,.F.);
#387=ORIENTED_EDGE('',*,*,#386,.F.);
#388=EDGE_LOOP('',(#383,#384,#385,#387));
#389=FACE_OUTER_BOUND('',#388,.F.);
#390=ADVANCED_FACE('',(#389),#382,.F.);
#391=CARTESIAN_POINT('',(0.E0,0.E0,5.25E-1));
#392=DIRECTION('',(0.E0,0.E0,-1.E0));
#393=DIRECTION('',(1.E0,0.E0,0.E0));
#394=AXIS2_PLACEMENT_3D('',#391,#392,#393);
#395=CYLINDRICAL_SURFACE('',#394,5.25E-1);
#397=ORIENTED_EDGE('',*,*,#396,.T.);
#399=ORIENTED_EDGE('',*,*,#398,.T.);
#400=ORIENTED_EDGE('',*,*,#386,.T.);
#402=ORIENTED_EDGE('',*,*,#401,.F.);
#403=EDGE_LOOP('',(#397,#399,#400,#402));
#404=FACE_OUTER_BOUND('',#403,.F.);
#405=ADVANCED_FACE('',(#404),#395,.F.);
#406=CARTESIAN_POINT('',(0.E0,0.E0,5.E-1));
#407=DIRECTION('',(0.E0,0.E0,1.E0));
#408=DIRECTION('',(1.E0,0.E0,0.E0));
#409=AXIS2_PLACEMENT_3D('',#406,#407,#408);
#410=PLANE('',#409);
#412=ORIENTED_EDGE('',*,*,#411,.F.);
#414=ORIENTED_EDGE('',*,*,#413,.F.);
#415=EDGE_LOOP('',(#412,#414));
#416=FACE_OUTER_BOUND('',#415,.F.);
#418=ORIENTED_EDGE('',*,*,#417,.F.);
#419=ORIENTED_EDGE('',*,*,#396,.F.);
#420=EDGE_LOOP('',(#418,#419));
#421=FACE_BOUND('',#420,.F.);
#422=ADVANCED_FACE('',(#416,#421),#410,.T.);
#423=CARTESIAN_POINT('',(0.E0,0.E0,0.E0));
#424=DIRECTION('',(0.E0,0.E0,1.E0));
#425=DIRECTION('',(1.E0,0.E0,0.E0));
#426=AXIS2_PLACEMENT_3D('',#423,#424,#425);
#427=CYLINDRICAL_SURFACE('',#426,5.55E-1);
#429=ORIENTED_EDGE('',*,*,#428,.F.);
#431=ORIENTED_EDGE('',*,*,#430,.T.);
#432=ORIENTED_EDGE('',*,*,#411,.T.);
#434=ORIENTED_EDGE('',*,*,#433,.F.);
#435=EDGE_LOOP('',(#429,#431,#432,#434));
#436=FACE_OUTER_BOUND('',#435,.F.);
#437=ADVANCED_FACE('',(#436),#427,.T.);
#438=CARTESIAN_POINT('',(0.E0,0.E0,1.523686027919E-1));
#439=DIRECTION('',(0.E0,0.E0,1.E0));
#440=DIRECTION('',(-1.E0,0.E0,0.E0));
#441=AXIS2_PLACEMENT_3D('',#438,#439,#440);
#442=CONICAL_SURFACE('',#441,4.725E-1,6.E1);
#443=ORIENTED_EDGE('',*,*,#428,.T.);
#445=ORIENTED_EDGE('',*,*,#444,.F.);
#447=ORIENTED_EDGE('',*,*,#446,.F.);
#449=ORIENTED_EDGE('',*,*,#448,.T.);
#450=EDGE_LOOP('',(#443,#445,#447,#449));
#451=FACE_OUTER_BOUND('',#450,.F.);
#452=ADVANCED_FACE('',(#451),#442,.T.);
#453=CARTESIAN_POINT('',(0.E0,0.E0,1.523686027919E-1));
#454=DIRECTION('',(0.E0,0.E0,1.E0));
#455=DIRECTION('',(-1.E0,0.E0,0.E0));
#456=AXIS2_PLACEMENT_3D('',#453,#454,#455);
#457=CONICAL_SURFACE('',#456,4.725E-1,6.E1);
#459=ORIENTED_EDGE('',*,*,#458,.T.);
#460=ORIENTED_EDGE('',*,*,#448,.F.);
#462=ORIENTED_EDGE('',*,*,#461,.T.);
#463=ORIENTED_EDGE('',*,*,#444,.T.);
#464=EDGE_LOOP('',(#459,#460,#462,#463));
#465=FACE_OUTER_BOUND('',#464,.F.);
#466=ADVANCED_FACE('',(#465),#457,.T.);
#467=CARTESIAN_POINT('',(0.E0,0.E0,0.E0));
#468=DIRECTION('',(0.E0,0.E0,1.E0));
#469=DIRECTION('',(1.E0,0.E0,0.E0));
#470=AXIS2_PLACEMENT_3D('',#467,#468,#469);
#471=CYLINDRICAL_SURFACE('',#470,5.55E-1);
#472=ORIENTED_EDGE('',*,*,#458,.F.);
#473=ORIENTED_EDGE('',*,*,#433,.T.);
#474=ORIENTED_EDGE('',*,*,#413,.T.);
#475=ORIENTED_EDGE('',*,*,#430,.F.);
#476=EDGE_LOOP('',(#472,#473,#474,#475));
#477=FACE_OUTER_BOUND('',#476,.F.);
#478=ADVANCED_FACE('',(#477),#471,.T.);
#479=CARTESIAN_POINT('',(0.E0,0.E0,5.277568135665E-2));
#480=DIRECTION('',(0.E0,0.E0,-1.E0));
#481=DIRECTION('',(1.E0,0.E0,0.E0));
#482=AXIS2_PLACEMENT_3D('',#479,#480,#481);
#483=TOROIDAL_SURFACE('',#482,4.2E-1,6.E-2);
#485=ORIENTED_EDGE('',*,*,#484,.F.);
#487=ORIENTED_EDGE('',*,*,#486,.T.);
#489=ORIENTED_EDGE('',*,*,#488,.T.);
#490=ORIENTED_EDGE('',*,*,#461,.F.);
#491=EDGE_LOOP('',(#485,#487,#489,#490));
#492=FACE_OUTER_BOUND('',#491,.F.);
#493=ADVANCED_FACE('',(#492),#483,.F.);
#494=CARTESIAN_POINT('',(0.E0,0.E0,5.277568135665E-2));
#495=DIRECTION('',(0.E0,0.E0,-1.E0));
#496=DIRECTION('',(1.E0,0.E0,0.E0));
#497=AXIS2_PLACEMENT_3D('',#494,#495,#496);
#498=TOROIDAL_SURFACE('',#497,4.2E-1,6.E-2);
#499=ORIENTED_EDGE('',*,*,#484,.T.);
#500=ORIENTED_EDGE('',*,*,#446,.T.);
#501=ORIENTED_EDGE('',*,*,#488,.F.);
#503=ORIENTED_EDGE('',*,*,#502,.F.);
#504=EDGE_LOOP('',(#499,#500,#501,#503));
#505=FACE_OUTER_BOUND('',#504,.F.);
#506=ADVANCED_FACE('',(#505),#498,.F.);
#507=CARTESIAN_POINT('',(0.E0,0.E0,2.1E-1));
#508=DIRECTION('',(0.E0,0.E0,-1.E0));
#509=DIRECTION('',(1.E0,0.E0,0.E0));
#510=AXIS2_PLACEMENT_3D('',#507,#508,#509);
#511=CYLINDRICAL_SURFACE('',#510,3.6E-1);
#512=ORIENTED_EDGE('',*,*,#252,.T.);
#514=ORIENTED_EDGE('',*,*,#513,.T.);
#515=ORIENTED_EDGE('',*,*,#502,.T.);
#517=ORIENTED_EDGE('',*,*,#516,.F.);
#518=EDGE_LOOP('',(#512,#514,#515,#517));
#519=FACE_OUTER_BOUND('',#518,.F.);
#520=ADVANCED_FACE('',(#519),#511,.T.);
#521=CARTESIAN_POINT('',(0.E0,0.E0,2.1E-1));
#522=DIRECTION('',(0.E0,0.E0,-1.E0));
#523=DIRECTION('',(1.E0,0.E0,0.E0));
#524=AXIS2_PLACEMENT_3D('',#521,#522,#523);
#525=CYLINDRICAL_SURFACE('',#524,3.6E-1);
#526=ORIENTED_EDGE('',*,*,#250,.T.);
#527=ORIENTED_EDGE('',*,*,#516,.T.);
#528=ORIENTED_EDGE('',*,*,#486,.F.);
#529=ORIENTED_EDGE('',*,*,#513,.F.);
#530=EDGE_LOOP('',(#526,#527,#528,#529));
#531=FACE_OUTER_BOUND('',#530,.F.);
#532=ADVANCED_FACE('',(#531),#525,.T.);
#533=CARTESIAN_POINT('',(0.E0,0.E0,5.25E-1));
#534=DIRECTION('',(0.E0,0.E0,-1.E0));
#535=DIRECTION('',(1.E0,0.E0,0.E0));
#536=AXIS2_PLACEMENT_3D('',#533,#534,#535);
#537=CYLINDRICAL_SURFACE('',#536,5.25E-1);
#538=ORIENTED_EDGE('',*,*,#417,.T.);
#539=ORIENTED_EDGE('',*,*,#401,.T.);
#540=ORIENTED_EDGE('',*,*,#370,.F.);
#541=ORIENTED_EDGE('',*,*,#398,.F.);
#542=EDGE_LOOP('',(#538,#539,#540,#541));
#543=FACE_OUTER_BOUND('',#542,.F.);
#544=ADVANCED_FACE('',(#543),#537,.F.);
#545=CLOSED_SHELL('',(#262,#277,#290,#306,#321,#334,#349,#362,#377,#390,#405,
#422,#437,#452,#466,#478,#493,#506,#520,#532,#544));
#546=MANIFOLD_SOLID_BREP('',#545);
#547=DIMENSIONAL_EXPONENTS(1.E0,0.E0,0.E0,0.E0,0.E0,0.E0,0.E0);
#549=LENGTH_MEASURE_WITH_UNIT(LENGTH_MEASURE(2.54E1),#548);
#550=(CONVERSION_BASED_UNIT('INCH',#549)LENGTH_UNIT()NAMED_UNIT(#547));
#551=DIMENSIONAL_EXPONENTS(0.E0,0.E0,0.E0,0.E0,0.E0,0.E0,0.E0);
#553=PLANE_ANGLE_MEASURE_WITH_UNIT(PLANE_ANGLE_MEASURE(1.745329251994E-2),#552);
#554=(CONVERSION_BASED_UNIT('DEGREE',#553)NAMED_UNIT(*)PLANE_ANGLE_UNIT());
#556=UNCERTAINTY_MEASURE_WITH_UNIT(LENGTH_MEASURE(1.647417029274E-4),#550,
'closure',
'Maximum model space distance between geometric entities at asserted connectivities');
#557=(GEOMETRIC_REPRESENTATION_CONTEXT(3)GLOBAL_UNCERTAINTY_ASSIGNED_CONTEXT((
#556))GLOBAL_UNIT_ASSIGNED_CONTEXT((#550,#554,#555))REPRESENTATION_CONTEXT
('ID1','3'));
#559=APPLICATION_CONTEXT(
'CONFIGURATION CONTROLLED 3D DESIGNS OF MECHANICAL PARTS AND ASSEMBLIES');
#560=APPLICATION_PROTOCOL_DEFINITION('international standard',
'config_control_design',1994,#559);
#561=DESIGN_CONTEXT('',#559,'design');
#562=MECHANICAL_CONTEXT('',#559,'mechanical');
#563=PRODUCT('ILC81070701','ILC81070701','NOT SPECIFIED',(#562));
#564=PRODUCT_DEFINITION_FORMATION_WITH_SPECIFIED_SOURCE('1','LAST_VERSION',#563,
.MADE.);
#568=PRODUCT_CATEGORY('part','');
#569=PRODUCT_RELATED_PRODUCT_CATEGORY('detail','',(#563));
#570=PRODUCT_CATEGORY_RELATIONSHIP('','',#568,#569);
#571=SECURITY_CLASSIFICATION_LEVEL('unclassified');
#572=SECURITY_CLASSIFICATION('','',#571);
#573=CC_DESIGN_SECURITY_CLASSIFICATION(#572,(#564));
#574=APPROVAL_STATUS('approved');
#575=APPROVAL(#574,'');
#576=CC_DESIGN_APPROVAL(#575,(#572,#564,#565));
#577=CALENDAR_DATE(120,24,11);
#578=COORDINATED_UNIVERSAL_TIME_OFFSET(6,0,.BEHIND.);
#579=LOCAL_TIME(10,44,3.8E1,#578);
#580=DATE_AND_TIME(#577,#579);
#581=APPROVAL_DATE_TIME(#580,#575);
#582=DATE_TIME_ROLE('creation_date');
#583=CC_DESIGN_DATE_AND_TIME_ASSIGNMENT(#580,#582,(#565));
#584=DATE_TIME_ROLE('classification_date');
#585=CC_DESIGN_DATE_AND_TIME_ASSIGNMENT(#580,#584,(#572));
#586=PERSON('UNSPECIFIED','UNSPECIFIED',$,$,$,$);
#587=ORGANIZATION('UNSPECIFIED','UNSPECIFIED','UNSPECIFIED');
#588=PERSON_AND_ORGANIZATION(#586,#587);
#589=APPROVAL_ROLE('approver');
#590=APPROVAL_PERSON_ORGANIZATION(#588,#575,#589);
#591=PERSON_AND_ORGANIZATION_ROLE('creator');
#592=CC_DESIGN_PERSON_AND_ORGANIZATION_ASSIGNMENT(#588,#591,(#564,#565));
#593=PERSON_AND_ORGANIZATION_ROLE('design_supplier');
#594=CC_DESIGN_PERSON_AND_ORGANIZATION_ASSIGNMENT(#588,#593,(#564));
#595=PERSON_AND_ORGANIZATION_ROLE('classification_officer');
#596=CC_DESIGN_PERSON_AND_ORGANIZATION_ASSIGNMENT(#588,#595,(#572));
#597=PERSON_AND_ORGANIZATION_ROLE('design_owner');
#598=CC_DESIGN_PERSON_AND_ORGANIZATION_ASSIGNMENT(#588,#597,(#563));
#5=CIRCLE('',#4,1.95E-1);
#10=CIRCLE('',#9,1.95E-1);
#15=CIRCLE('',#14,3.6E-1);
#20=CIRCLE('',#19,3.6E-1);
#25=CIRCLE('',#24,1.95E-1);
#34=CIRCLE('',#33,1.95E-1);
#43=CIRCLE('',#42,3.3E-1);
#48=CIRCLE('',#47,3.3E-1);
#53=CIRCLE('',#52,3.3E-1);
#66=CIRCLE('',#65,3.3E-1);
#79=CIRCLE('',#78,4.95E-1);
#84=CIRCLE('',#83,4.95E-1);
#89=CIRCLE('',#88,5.25E-1);
#94=CIRCLE('',#93,6.E-2);
#99=CIRCLE('',#98,6.E-2);
#104=CIRCLE('',#103,5.25E-1);
#117=CIRCLE('',#116,5.55E-1);
#122=CIRCLE('',#121,5.55E-1);
#127=CIRCLE('',#126,5.25E-1);
#132=CIRCLE('',#131,5.25E-1);
#141=CIRCLE('',#140,5.55E-1);
#150=CIRCLE('',#149,3.9E-1);
#159=CIRCLE('',#158,5.55E-1);
#164=CIRCLE('',#163,3.9E-1);
#173=CIRCLE('',#172,3.6E-1);
#178=CIRCLE('',#177,6.E-2);
#183=CIRCLE('',#182,6.E-2);
#188=CIRCLE('',#187,3.6E-1);
#250=EDGE_CURVE('',#239,#240,#15,.T.);
#252=EDGE_CURVE('',#240,#239,#20,.T.);
#256=EDGE_CURVE('',#223,#224,#5,.T.);
#258=EDGE_CURVE('',#224,#223,#10,.T.);
#269=EDGE_CURVE('',#219,#223,#38,.T.);
#271=EDGE_CURVE('',#219,#220,#25,.T.);
#273=EDGE_CURVE('',#220,#224,#29,.T.);
#285=EDGE_CURVE('',#219,#220,#34,.T.);
#296=EDGE_CURVE('',#208,#216,#43,.T.);
#298=EDGE_CURVE('',#208,#216,#48,.T.);
#312=EDGE_CURVE('',#206,#208,#57,.T.);
#314=EDGE_CURVE('',#206,#214,#53,.T.);
#316=EDGE_CURVE('',#214,#216,#61,.T.);
#330=EDGE_CURVE('',#206,#214,#66,.T.);
#340=EDGE_CURVE('',#204,#206,#70,.T.);
#343=EDGE_CURVE('',#212,#214,#74,.T.);
#345=EDGE_CURVE('',#204,#212,#79,.T.);
#356=EDGE_CURVE('',#204,#212,#84,.T.);
#368=EDGE_CURVE('',#203,#204,#94,.T.);
#370=EDGE_CURVE('',#203,#211,#89,.T.);
#372=EDGE_CURVE('',#211,#212,#99,.T.);
#386=EDGE_CURVE('',#203,#211,#104,.T.);
#396=EDGE_CURVE('',#228,#227,#132,.T.);
#398=EDGE_CURVE('',#227,#203,#108,.T.);
#401=EDGE_CURVE('',#228,#211,#112,.T.);
#411=EDGE_CURVE('',#199,#200,#117,.T.);
#413=EDGE_CURVE('',#200,#199,#122,.T.);
#417=EDGE_CURVE('',#227,#228,#127,.T.);
#428=EDGE_CURVE('',#243,#244,#141,.T.);
#430=EDGE_CURVE('',#243,#199,#136,.T.);
#433=EDGE_CURVE('',#244,#200,#168,.T.);
#444=EDGE_CURVE('',#236,#244,#145,.T.);
#446=EDGE_CURVE('',#232,#236,#150,.T.);
#448=EDGE_CURVE('',#232,#243,#154,.T.);
#458=EDGE_CURVE('',#244,#243,#159,.T.);
#461=EDGE_CURVE('',#232,#236,#164,.T.);
#484=EDGE_CURVE('',#231,#232,#178,.T.);
#486=EDGE_CURVE('',#231,#235,#173,.T.);
#488=EDGE_CURVE('',#235,#236,#183,.T.);
#502=EDGE_CURVE('',#231,#235,#188,.T.);
#513=EDGE_CURVE('',#239,#231,#192,.T.);
#516=EDGE_CURVE('',#240,#235,#196,.T.);
#548=(LENGTH_UNIT()NAMED_UNIT(*)SI_UNIT(.MILLI.,.METRE.));
#552=(NAMED_UNIT(*)PLANE_ANGLE_UNIT()SI_UNIT($,.RADIAN.));
#555=(NAMED_UNIT(*)SI_UNIT($,.STERADIAN.)SOLID_ANGLE_UNIT());
#558=ADVANCED_BREP_SHAPE_REPRESENTATION('',(#546),#557);
#565=PRODUCT_DEFINITION('design','',#564,#561);
#566=PRODUCT_DEFINITION_SHAPE('','SHAPE FOR ILC81070701.',#565);
#567=SHAPE_DEFINITION_REPRESENTATION(#566,#558);
ENDSEC;
END-ISO-10303-21;
