ISO-10303-21;
HEADER;
FILE_DESCRIPTION((''),'2;1');
FILE_NAME('ILC81070801','2005-08-25T',('KR'),(''),
'PRO/ENGINEER BY PARAMETRIC TECHNOLOGY CORPORATION, 2004290',
'PRO/ENGINEER BY PARAMETRIC TECHNOLOGY CORPORATION, 2004290','');
FILE_SCHEMA(('AUTOMOTIVE_DESIGN_CC2 { 1 2 10303 214 -1 1 5 2 }'));
ENDSEC;
DATA;
#1=COLOUR_RGB('',0.E0,0.E0,4.7E-1);
#2=COLOUR_RGB('',0.E0,0.E0,6.E-1);
#3=COLOUR_RGB('',0.E0,0.E0,8.E-1);
#4=DRAUGHTING_PRE_DEFINED_COLOUR('blue');
#5=COLOUR_RGB('',0.E0,2.E-1,1.E0);
#6=COLOUR_RGB('',0.E0,3.3E-1,0.E0);
#7=COLOUR_RGB('',0.E0,3.3E-1,3.3E-1);
#8=COLOUR_RGB('',0.E0,4.E-1,0.E0);
#9=COLOUR_RGB('',0.E0,4.E-1,4.E-1);
#10=COLOUR_RGB('',0.E0,4.E-1,1.E0);
#11=COLOUR_RGB('',0.E0,5.3E-1,5.3E-1);
#12=COLOUR_RGB('',0.E0,6.E-1,0.E0);
#13=COLOUR_RGB('',0.E0,6.E-1,6.E-1);
#14=COLOUR_RGB('',0.E0,6.E-1,1.E0);
#15=COLOUR_RGB('',0.E0,8.E-1,0.E0);
#16=COLOUR_RGB('',0.E0,8.E-1,8.E-1);
#17=COLOUR_RGB('',0.E0,8.E-1,1.E0);
#18=COLOUR_RGB('',0.E0,9.3E-1,0.E0);
#19=COLOUR_RGB('',0.E0,9.3E-1,9.3E-1);
#20=DRAUGHTING_PRE_DEFINED_COLOUR('green');
#21=COLOUR_RGB('',0.E0,1.E0,2.E-1);
#22=COLOUR_RGB('',0.E0,1.E0,4.E-1);
#23=COLOUR_RGB('',0.E0,1.E0,6.E-1);
#24=COLOUR_RGB('',0.E0,1.E0,8.E-1);
#25=DRAUGHTING_PRE_DEFINED_COLOUR('cyan');
#26=COLOUR_RGB('',7.E-2,7.E-2,1.E0);
#27=COLOUR_RGB('',2.E-1,1.E0,0.E0);
#28=COLOUR_RGB('',2.E-1,1.E0,2.E-1);
#29=COLOUR_RGB('',2.E-1,1.E0,1.E0);
#30=COLOUR_RGB('',2.7E-1,0.E0,4.E-1);
#31=COLOUR_RGB('',2.7E-1,2.7E-1,0.E0);
#32=COLOUR_RGB('',2.7E-1,2.7E-1,1.E0);
#33=COLOUR_RGB('',3.3E-1,0.E0,0.E0);
#34=COLOUR_RGB('',3.3E-1,0.E0,3.3E-1);
#35=COLOUR_RGB('',3.3E-1,0.E0,5.3E-1);
#36=COLOUR_RGB('',4.E-1,0.E0,4.E-1);
#37=COLOUR_RGB('',4.E-1,0.E0,6.7E-1);
#38=COLOUR_RGB('',4.E-1,1.3E-1,0.E0);
#39=COLOUR_RGB('',4.E-1,4.E-1,0.E0);
#40=COLOUR_RGB('',4.E-1,4.E-1,1.E0);
#41=COLOUR_RGB('',4.E-1,1.E0,0.E0);
#42=COLOUR_RGB('',4.E-1,1.E0,4.E-1);
#43=COLOUR_RGB('',4.E-1,1.E0,1.E0);
#44=COLOUR_RGB('',4.7E-1,0.E0,0.E0);
#45=COLOUR_RGB('',4.7E-1,0.E0,8.E-1);
#46=COLOUR_RGB('',4.7E-1,0.E0,8.7E-1);
#47=COLOUR_RGB('',4.7E-1,2.E-1,7.E-2);
#48=COLOUR_RGB('',4.7E-1,4.7E-1,4.7E-1);
#49=COLOUR_RGB('',5.3E-1,0.E0,9.3E-1);
#50=COLOUR_RGB('',5.3E-1,2.7E-1,1.3E-1);
#51=COLOUR_RGB('',5.3E-1,5.3E-1,1.E0);
#52=COLOUR_RGB('',6.E-1,0.E0,6.E-1);
#53=COLOUR_RGB('',6.E-1,2.E-1,1.E0);
#54=COLOUR_RGB('',6.E-1,3.3E-1,2.E-1);
#55=COLOUR_RGB('',6.E-1,6.E-1,0.E0);
#56=COLOUR_RGB('',6.E-1,6.E-1,1.E0);
#57=COLOUR_RGB('',6.E-1,1.E0,6.E-1);
#58=COLOUR_RGB('',6.E-1,1.E0,1.E0);
#59=COLOUR_RGB('',6.7E-1,0.E0,0.E0);
#60=COLOUR_RGB('',6.7E-1,0.E0,5.3E-1);
#61=COLOUR_RGB('',6.7E-1,4.E-1,2.7E-1);
#62=COLOUR_RGB('',6.7E-1,4.E-1,1.E0);
#63=COLOUR_RGB('',6.7E-1,6.7E-1,1.E0);
#64=COLOUR_RGB('',6.7E-1,1.E0,0.E0);
#65=COLOUR_RGB('',7.3E-1,2.7E-1,1.E0);
#66=COLOUR_RGB('',7.3E-1,4.E-1,0.E0);
#67=COLOUR_RGB('',7.3E-1,4.7E-1,3.3E-1);
#68=COLOUR_RGB('',7.3E-1,7.3E-1,7.3E-1);
#69=COLOUR_RGB('',8.E-1,0.E0,8.E-1);
#70=COLOUR_RGB('',8.E-1,5.3E-1,4.E-1);
#71=COLOUR_RGB('',8.E-1,6.E-1,1.E0);
#72=COLOUR_RGB('',8.E-1,8.E-1,0.E0);
#73=COLOUR_RGB('',8.E-1,8.E-1,1.E0);
#74=COLOUR_RGB('',8.E-1,1.E0,8.E-1);
#75=COLOUR_RGB('',8.E-1,1.E0,1.E0);
#76=COLOUR_RGB('',8.7E-1,0.E0,0.E0);
#77=COLOUR_RGB('',8.7E-1,6.E-1,4.7E-1);
#78=COLOUR_RGB('',9.3E-1,0.E0,9.3E-1);
#79=COLOUR_RGB('',9.3E-1,6.7E-1,5.3E-1);
#80=COLOUR_RGB('',9.3E-1,8.E-1,1.E0);
#81=COLOUR_RGB('',9.3E-1,9.3E-1,0.E0);
#82=COLOUR_RGB('',9.3E-1,1.E0,9.3E-1);
#83=COLOUR_RGB('',9.3E-1,1.E0,1.E0);
#84=DRAUGHTING_PRE_DEFINED_COLOUR('red');
#85=COLOUR_RGB('',1.E0,0.E0,2.7E-1);
#86=COLOUR_RGB('',1.E0,0.E0,4.7E-1);
#87=DRAUGHTING_PRE_DEFINED_COLOUR('magenta');
#88=COLOUR_RGB('',1.E0,7.E-2,7.E-2);
#89=COLOUR_RGB('',1.E0,2.E-1,1.E0);
#90=COLOUR_RGB('',1.E0,2.7E-1,0.E0);
#91=COLOUR_RGB('',1.E0,2.7E-1,2.7E-1);
#92=COLOUR_RGB('',1.E0,4.E-1,1.E0);
#93=COLOUR_RGB('',1.E0,4.7E-1,0.E0);
#94=COLOUR_RGB('',1.E0,4.7E-1,4.7E-1);
#95=COLOUR_RGB('',1.E0,4.7E-1,5.3E-1);
#96=COLOUR_RGB('',1.E0,6.E-1,1.E0);
#97=COLOUR_RGB('',1.E0,6.7E-1,0.E0);
#98=COLOUR_RGB('',1.E0,6.7E-1,6.7E-1);
#99=COLOUR_RGB('',1.E0,7.3E-1,5.3E-1);
#100=COLOUR_RGB('',1.E0,7.3E-1,6.E-1);
#101=COLOUR_RGB('',1.E0,8.E-1,8.E-1);
#102=COLOUR_RGB('',1.E0,8.E-1,1.E0);
#103=COLOUR_RGB('',1.E0,8.7E-1,0.E0);
#104=COLOUR_RGB('',1.E0,9.3E-1,9.3E-1);
#105=COLOUR_RGB('',1.E0,9.3E-1,1.E0);
#106=DRAUGHTING_PRE_DEFINED_COLOUR('yellow');
#107=COLOUR_RGB('',1.E0,1.E0,1.3E-1);
#108=COLOUR_RGB('',1.E0,1.E0,3.3E-1);
#109=COLOUR_RGB('',1.E0,1.E0,5.3E-1);
#110=COLOUR_RGB('',1.E0,1.E0,7.3E-1);
#111=COLOUR_RGB('',1.E0,1.E0,9.3E-1);
#112=CARTESIAN_POINT('',(0.E0,0.E0,0.E0));
#113=DIRECTION('',(0.E0,0.E0,1.E0));
#114=DIRECTION('',(-1.E0,0.E0,0.E0));
#115=AXIS2_PLACEMENT_3D('',#112,#113,#114);
#117=CARTESIAN_POINT('',(0.E0,0.E0,0.E0));
#118=DIRECTION('',(0.E0,0.E0,1.E0));
#119=DIRECTION('',(1.E0,0.E0,0.E0));
#120=AXIS2_PLACEMENT_3D('',#117,#118,#119);
#122=CARTESIAN_POINT('',(0.E0,0.E0,0.E0));
#123=DIRECTION('',(0.E0,0.E0,-1.E0));
#124=DIRECTION('',(1.E0,0.E0,0.E0));
#125=AXIS2_PLACEMENT_3D('',#122,#123,#124);
#127=CARTESIAN_POINT('',(0.E0,0.E0,0.E0));
#128=DIRECTION('',(0.E0,0.E0,-1.E0));
#129=DIRECTION('',(-1.E0,0.E0,0.E0));
#130=AXIS2_PLACEMENT_3D('',#127,#128,#129);
#132=DIRECTION('',(0.E0,0.E0,1.E0));
#133=VECTOR('',#132,3.E-2);
#134=CARTESIAN_POINT('',(-2.5E-1,0.E0,0.E0));
#135=LINE('',#134,#133);
#136=DIRECTION('',(0.E0,0.E0,1.E0));
#137=VECTOR('',#136,3.E-2);
#138=CARTESIAN_POINT('',(2.5E-1,0.E0,0.E0));
#139=LINE('',#138,#137);
#140=CARTESIAN_POINT('',(0.E0,0.E0,3.E-2));
#141=DIRECTION('',(0.E0,0.E0,1.E0));
#142=DIRECTION('',(-1.E0,0.E0,0.E0));
#143=AXIS2_PLACEMENT_3D('',#140,#141,#142);
#145=CARTESIAN_POINT('',(0.E0,0.E0,3.E-2));
#146=DIRECTION('',(0.E0,0.E0,-1.E0));
#147=DIRECTION('',(-1.E0,0.E0,0.E0));
#148=AXIS2_PLACEMENT_3D('',#145,#146,#147);
#150=DIRECTION('',(0.E0,0.E0,1.E0));
#151=VECTOR('',#150,2.5E-1);
#152=CARTESIAN_POINT('',(-4.25E-1,0.E0,3.E-2));
#153=LINE('',#152,#151);
#154=DIRECTION('',(0.E0,0.E0,1.E0));
#155=VECTOR('',#154,2.5E-1);
#156=CARTESIAN_POINT('',(4.25E-1,0.E0,3.E-2));
#157=LINE('',#156,#155);
#158=CARTESIAN_POINT('',(0.E0,0.E0,3.E-2));
#159=DIRECTION('',(0.E0,0.E0,-1.E0));
#160=DIRECTION('',(-1.E0,0.E0,0.E0));
#161=AXIS2_PLACEMENT_3D('',#158,#159,#160);
#163=CARTESIAN_POINT('',(0.E0,0.E0,3.E-2));
#164=DIRECTION('',(0.E0,0.E0,1.E0));
#165=DIRECTION('',(-1.E0,0.E0,0.E0));
#166=AXIS2_PLACEMENT_3D('',#163,#164,#165);
#168=CARTESIAN_POINT('',(0.E0,0.E0,2.8E-1));
#169=DIRECTION('',(0.E0,0.E0,1.E0));
#170=DIRECTION('',(-1.E0,0.E0,0.E0));
#171=AXIS2_PLACEMENT_3D('',#168,#169,#170);
#173=DIRECTION('',(-8.660254037844E-1,0.E0,5.E-1));
#174=VECTOR('',#173,2.309401076759E-1);
#175=CARTESIAN_POINT('',(-4.25E-1,0.E0,2.8E-1));
#176=LINE('',#175,#174);
#177=DIRECTION('',(8.660254037844E-1,0.E0,5.E-1));
#178=VECTOR('',#177,2.309401076759E-1);
#179=CARTESIAN_POINT('',(4.25E-1,0.E0,2.8E-1));
#180=LINE('',#179,#178);
#181=CARTESIAN_POINT('',(0.E0,0.E0,2.8E-1));
#182=DIRECTION('',(0.E0,0.E0,-1.E0));
#183=DIRECTION('',(-1.E0,0.E0,0.E0));
#184=AXIS2_PLACEMENT_3D('',#181,#182,#183);
#186=CARTESIAN_POINT('',(-5.95E-1,0.E0,4.474315780650E-1));
#187=DIRECTION('',(0.E0,1.E0,0.E0));
#188=DIRECTION('',(-5.E-1,0.E0,-8.660254037844E-1));
#189=AXIS2_PLACEMENT_3D('',#186,#187,#188);
#191=CARTESIAN_POINT('',(5.95E-1,0.E0,4.474315780650E-1));
#192=DIRECTION('',(0.E0,-1.E0,0.E0));
#193=DIRECTION('',(5.E-1,0.E0,-8.660254037844E-1));
#194=AXIS2_PLACEMENT_3D('',#191,#192,#193);
#196=CARTESIAN_POINT('',(0.E0,0.E0,3.954700538379E-1));
#197=DIRECTION('',(0.E0,0.E0,-1.E0));
#198=DIRECTION('',(-1.E0,0.E0,0.E0));
#199=AXIS2_PLACEMENT_3D('',#196,#197,#198);
#201=CARTESIAN_POINT('',(0.E0,0.E0,3.954700538379E-1));
#202=DIRECTION('',(0.E0,0.E0,1.E0));
#203=DIRECTION('',(-1.E0,0.E0,0.E0));
#204=AXIS2_PLACEMENT_3D('',#201,#202,#203);
#206=CARTESIAN_POINT('',(0.E0,0.E0,4.474315780650E-1));
#207=DIRECTION('',(0.E0,0.E0,1.E0));
#208=DIRECTION('',(-1.E0,0.E0,0.E0));
#209=AXIS2_PLACEMENT_3D('',#206,#207,#208);
#211=CARTESIAN_POINT('',(0.E0,0.E0,8.4E-1));
#212=DIRECTION('',(0.E0,0.E0,1.E0));
#213=DIRECTION('',(1.E0,0.E0,0.E0));
#214=AXIS2_PLACEMENT_3D('',#211,#212,#213);
#216=CARTESIAN_POINT('',(0.E0,0.E0,8.4E-1));
#217=DIRECTION('',(0.E0,0.E0,1.E0));
#218=DIRECTION('',(-1.E0,0.E0,0.E0));
#219=AXIS2_PLACEMENT_3D('',#216,#217,#218);
#221=CARTESIAN_POINT('',(0.E0,0.E0,8.4E-1));
#222=DIRECTION('',(0.E0,0.E0,1.E0));
#223=DIRECTION('',(-1.E0,0.E0,0.E0));
#224=AXIS2_PLACEMENT_3D('',#221,#222,#223);
#226=CARTESIAN_POINT('',(0.E0,0.E0,8.4E-1));
#227=DIRECTION('',(0.E0,0.E0,1.E0));
#228=DIRECTION('',(1.E0,0.E0,0.E0));
#229=AXIS2_PLACEMENT_3D('',#226,#227,#228);
#231=DIRECTION('',(0.E0,0.E0,1.E0));
#232=VECTOR('',#231,4.416431948161E-1);
#233=CARTESIAN_POINT('',(6.9E-1,0.E0,3.983568051839E-1));
#234=LINE('',#233,#232);
#235=DIRECTION('',(0.E0,0.E0,1.E0));
#236=VECTOR('',#235,4.416431948161E-1);
#237=CARTESIAN_POINT('',(-6.9E-1,0.E0,3.983568051839E-1));
#238=LINE('',#237,#236);
#239=CARTESIAN_POINT('',(0.E0,0.E0,3.983568051839E-1));
#240=DIRECTION('',(0.E0,0.E0,1.E0));
#241=DIRECTION('',(-1.E0,0.E0,0.E0));
#242=AXIS2_PLACEMENT_3D('',#239,#240,#241);
#244=CARTESIAN_POINT('',(0.E0,0.E0,2.8E-1));
#245=DIRECTION('',(0.E0,0.E0,-1.E0));
#246=DIRECTION('',(1.E0,0.E0,0.E0));
#247=AXIS2_PLACEMENT_3D('',#244,#245,#246);
#249=CARTESIAN_POINT('',(0.E0,0.E0,3.983568051839E-1));
#250=DIRECTION('',(0.E0,0.E0,1.E0));
#251=DIRECTION('',(1.E0,0.E0,0.E0));
#252=AXIS2_PLACEMENT_3D('',#249,#250,#251);
#254=DIRECTION('',(-8.660254037844E-1,0.E0,5.E-1));
#255=VECTOR('',#254,2.367136103677E-1);
#256=CARTESIAN_POINT('',(-4.85E-1,0.E0,2.8E-1));
#257=LINE('',#256,#255);
#258=CARTESIAN_POINT('',(0.E0,0.E0,2.8E-1));
#259=DIRECTION('',(0.E0,0.E0,1.E0));
#260=DIRECTION('',(1.E0,0.E0,0.E0));
#261=AXIS2_PLACEMENT_3D('',#258,#259,#260);
#263=DIRECTION('',(8.660254037844E-1,0.E0,5.E-1));
#264=VECTOR('',#263,2.367136103677E-1);
#265=CARTESIAN_POINT('',(4.85E-1,0.E0,2.8E-1));
#266=LINE('',#265,#264);
#267=CARTESIAN_POINT('',(5.15E-1,0.E0,2.280384757729E-1));
#268=DIRECTION('',(0.E0,1.E0,0.E0));
#269=DIRECTION('',(-1.E0,0.E0,0.E0));
#270=AXIS2_PLACEMENT_3D('',#267,#268,#269);
#272=CARTESIAN_POINT('',(-5.15E-1,0.E0,2.280384757729E-1));
#273=DIRECTION('',(0.E0,-1.E0,0.E0));
#274=DIRECTION('',(1.E0,0.E0,0.E0));
#275=AXIS2_PLACEMENT_3D('',#272,#273,#274);
#277=CARTESIAN_POINT('',(0.E0,0.E0,2.280384757729E-1));
#278=DIRECTION('',(0.E0,0.E0,1.E0));
#279=DIRECTION('',(1.E0,0.E0,0.E0));
#280=AXIS2_PLACEMENT_3D('',#277,#278,#279);
#282=CARTESIAN_POINT('',(0.E0,0.E0,2.280384757729E-1));
#283=DIRECTION('',(0.E0,0.E0,-1.E0));
#284=DIRECTION('',(1.E0,0.E0,0.E0));
#285=AXIS2_PLACEMENT_3D('',#282,#283,#284);
#287=DIRECTION('',(0.E0,0.E0,1.E0));
#288=VECTOR('',#287,2.280384757729E-1);
#289=CARTESIAN_POINT('',(4.55E-1,0.E0,0.E0));
#290=LINE('',#289,#288);
#291=DIRECTION('',(0.E0,0.E0,1.E0));
#292=VECTOR('',#291,2.280384757729E-1);
#293=CARTESIAN_POINT('',(-4.55E-1,0.E0,0.E0));
#294=LINE('',#293,#292);
#295=DIRECTION('',(0.E0,0.E0,1.E0));
#296=VECTOR('',#295,3.925684219350E-1);
#297=CARTESIAN_POINT('',(6.55E-1,0.E0,4.474315780650E-1));
#298=LINE('',#297,#296);
#299=CARTESIAN_POINT('',(0.E0,0.E0,4.474315780650E-1));
#300=DIRECTION('',(0.E0,0.E0,-1.E0));
#301=DIRECTION('',(-1.E0,0.E0,0.E0));
#302=AXIS2_PLACEMENT_3D('',#299,#300,#301);
#304=DIRECTION('',(0.E0,0.E0,1.E0));
#305=VECTOR('',#304,3.925684219350E-1);
#306=CARTESIAN_POINT('',(-6.55E-1,0.E0,4.474315780650E-1));
#307=LINE('',#306,#305);
#308=CARTESIAN_POINT('',(6.9E-1,0.E0,8.4E-1));
#309=CARTESIAN_POINT('',(-6.9E-1,0.E0,8.4E-1));
#310=VERTEX_POINT('',#308);
#311=VERTEX_POINT('',#309);
#312=CARTESIAN_POINT('',(-4.25E-1,0.E0,3.E-2));
#313=CARTESIAN_POINT('',(-4.25E-1,0.E0,2.8E-1));
#314=VERTEX_POINT('',#312);
#315=VERTEX_POINT('',#313);
#316=CARTESIAN_POINT('',(4.25E-1,0.E0,3.E-2));
#317=CARTESIAN_POINT('',(4.25E-1,0.E0,2.8E-1));
#318=VERTEX_POINT('',#316);
#319=VERTEX_POINT('',#317);
#320=CARTESIAN_POINT('',(-2.5E-1,0.E0,3.E-2));
#321=CARTESIAN_POINT('',(2.5E-1,0.E0,3.E-2));
#322=VERTEX_POINT('',#320);
#323=VERTEX_POINT('',#321);
#324=CARTESIAN_POINT('',(-2.5E-1,0.E0,0.E0));
#325=CARTESIAN_POINT('',(2.5E-1,0.E0,0.E0));
#326=VERTEX_POINT('',#324);
#327=VERTEX_POINT('',#325);
#328=CARTESIAN_POINT('',(-6.55E-1,0.E0,8.4E-1));
#329=CARTESIAN_POINT('',(6.55E-1,0.E0,8.4E-1));
#330=VERTEX_POINT('',#328);
#331=VERTEX_POINT('',#329);
#332=CARTESIAN_POINT('',(-6.55E-1,0.E0,4.474315780650E-1));
#333=VERTEX_POINT('',#332);
#334=CARTESIAN_POINT('',(6.55E-1,0.E0,4.474315780650E-1));
#335=VERTEX_POINT('',#334);
#336=CARTESIAN_POINT('',(4.55E-1,0.E0,0.E0));
#337=CARTESIAN_POINT('',(-4.55E-1,0.E0,0.E0));
#338=VERTEX_POINT('',#336);
#339=VERTEX_POINT('',#337);
#340=CARTESIAN_POINT('',(6.9E-1,0.E0,3.983568051839E-1));
#341=VERTEX_POINT('',#340);
#342=CARTESIAN_POINT('',(-6.9E-1,0.E0,3.983568051839E-1));
#343=VERTEX_POINT('',#342);
#344=CARTESIAN_POINT('',(4.55E-1,0.E0,2.280384757729E-1));
#345=VERTEX_POINT('',#344);
#346=CARTESIAN_POINT('',(-4.55E-1,0.E0,2.280384757729E-1));
#347=VERTEX_POINT('',#346);
#348=CARTESIAN_POINT('',(-6.25E-1,0.E0,3.954700538379E-1));
#349=VERTEX_POINT('',#348);
#350=CARTESIAN_POINT('',(6.25E-1,0.E0,3.954700538379E-1));
#351=VERTEX_POINT('',#350);
#352=CARTESIAN_POINT('',(4.85E-1,0.E0,2.8E-1));
#353=VERTEX_POINT('',#352);
#354=CARTESIAN_POINT('',(-4.85E-1,0.E0,2.8E-1));
#355=VERTEX_POINT('',#354);
#356=CARTESIAN_POINT('',(0.E0,0.E0,0.E0));
#357=DIRECTION('',(0.E0,0.E0,1.E0));
#358=DIRECTION('',(1.E0,0.E0,0.E0));
#359=AXIS2_PLACEMENT_3D('',#356,#357,#358);
#360=PLANE('',#359);
#362=ORIENTED_EDGE('',*,*,#361,.F.);
#364=ORIENTED_EDGE('',*,*,#363,.F.);
#365=EDGE_LOOP('',(#362,#364));
#366=FACE_OUTER_BOUND('',#365,.F.);
#368=ORIENTED_EDGE('',*,*,#367,.F.);
#370=ORIENTED_EDGE('',*,*,#369,.F.);
#371=EDGE_LOOP('',(#368,#370));
#372=FACE_BOUND('',#371,.F.);
#373=ADVANCED_FACE('',(#366,#372),#360,.F.);
#374=CARTESIAN_POINT('',(0.E0,0.E0,-4.2E-2));
#375=DIRECTION('',(0.E0,0.E0,1.E0));
#376=DIRECTION('',(-1.E0,0.E0,0.E0));
#377=AXIS2_PLACEMENT_3D('',#374,#375,#376);
#378=CYLINDRICAL_SURFACE('',#377,2.5E-1);
#379=ORIENTED_EDGE('',*,*,#367,.T.);
#381=ORIENTED_EDGE('',*,*,#380,.T.);
#383=ORIENTED_EDGE('',*,*,#382,.F.);
#385=ORIENTED_EDGE('',*,*,#384,.F.);
#386=EDGE_LOOP('',(#379,#381,#383,#385));
#387=FACE_OUTER_BOUND('',#386,.F.);
#388=ADVANCED_FACE('',(#387),#378,.F.);
#389=CARTESIAN_POINT('',(0.E0,0.E0,-4.2E-2));
#390=DIRECTION('',(0.E0,0.E0,1.E0));
#391=DIRECTION('',(-1.E0,0.E0,0.E0));
#392=AXIS2_PLACEMENT_3D('',#389,#390,#391);
#393=CYLINDRICAL_SURFACE('',#392,2.5E-1);
#394=ORIENTED_EDGE('',*,*,#369,.T.);
#395=ORIENTED_EDGE('',*,*,#384,.T.);
#397=ORIENTED_EDGE('',*,*,#396,.T.);
#398=ORIENTED_EDGE('',*,*,#380,.F.);
#399=EDGE_LOOP('',(#394,#395,#397,#398));
#400=FACE_OUTER_BOUND('',#399,.F.);
#401=ADVANCED_FACE('',(#400),#393,.F.);
#402=CARTESIAN_POINT('',(0.E0,0.E0,3.E-2));
#403=DIRECTION('',(0.E0,0.E0,1.E0));
#404=DIRECTION('',(-1.E0,0.E0,0.E0));
#405=AXIS2_PLACEMENT_3D('',#402,#403,#404);
#406=PLANE('',#405);
#408=ORIENTED_EDGE('',*,*,#407,.T.);
#410=ORIENTED_EDGE('',*,*,#409,.F.);
#411=EDGE_LOOP('',(#408,#410));
#412=FACE_OUTER_BOUND('',#411,.F.);
#413=ORIENTED_EDGE('',*,*,#382,.T.);
#414=ORIENTED_EDGE('',*,*,#396,.F.);
#415=EDGE_LOOP('',(#413,#414));
#416=FACE_BOUND('',#415,.F.);
#417=ADVANCED_FACE('',(#412,#416),#406,.T.);
#418=CARTESIAN_POINT('',(0.E0,0.E0,-4.2E-2));
#419=DIRECTION('',(0.E0,0.E0,1.E0));
#420=DIRECTION('',(-1.E0,0.E0,0.E0));
#421=AXIS2_PLACEMENT_3D('',#418,#419,#420);
#422=CYLINDRICAL_SURFACE('',#421,4.25E-1);
#424=ORIENTED_EDGE('',*,*,#423,.T.);
#426=ORIENTED_EDGE('',*,*,#425,.T.);
#428=ORIENTED_EDGE('',*,*,#427,.F.);
#429=ORIENTED_EDGE('',*,*,#407,.F.);
#430=EDGE_LOOP('',(#424,#426,#428,#429));
#431=FACE_OUTER_BOUND('',#430,.F.);
#432=ADVANCED_FACE('',(#431),#422,.F.);
#433=CARTESIAN_POINT('',(0.E0,0.E0,-4.2E-2));
#434=DIRECTION('',(0.E0,0.E0,1.E0));
#435=DIRECTION('',(-1.E0,0.E0,0.E0));
#436=AXIS2_PLACEMENT_3D('',#433,#434,#435);
#437=CYLINDRICAL_SURFACE('',#436,4.25E-1);
#438=ORIENTED_EDGE('',*,*,#423,.F.);
#439=ORIENTED_EDGE('',*,*,#409,.T.);
#440=ORIENTED_EDGE('',*,*,#427,.T.);
#442=ORIENTED_EDGE('',*,*,#441,.F.);
#443=EDGE_LOOP('',(#438,#439,#440,#442));
#444=FACE_OUTER_BOUND('',#443,.F.);
#445=ADVANCED_FACE('',(#444),#437,.F.);
#446=CARTESIAN_POINT('',(0.E0,0.E0,3.377350269190E-1));
#447=DIRECTION('',(0.E0,0.E0,1.E0));
#448=DIRECTION('',(-1.E0,0.E0,0.E0));
#449=AXIS2_PLACEMENT_3D('',#446,#447,#448);
#450=CONICAL_SURFACE('',#449,5.25E-1,6.E1);
#452=ORIENTED_EDGE('',*,*,#451,.F.);
#453=ORIENTED_EDGE('',*,*,#441,.T.);
#455=ORIENTED_EDGE('',*,*,#454,.T.);
#457=ORIENTED_EDGE('',*,*,#456,.F.);
#458=EDGE_LOOP('',(#452,#453,#455,#457));
#459=FACE_OUTER_BOUND('',#458,.F.);
#460=ADVANCED_FACE('',(#459),#450,.F.);
#461=CARTESIAN_POINT('',(0.E0,0.E0,3.377350269190E-1));
#462=DIRECTION('',(0.E0,0.E0,1.E0));
#463=DIRECTION('',(-1.E0,0.E0,0.E0));
#464=AXIS2_PLACEMENT_3D('',#461,#462,#463);
#465=CONICAL_SURFACE('',#464,5.25E-1,6.E1);
#466=ORIENTED_EDGE('',*,*,#451,.T.);
#468=ORIENTED_EDGE('',*,*,#467,.T.);
#469=ORIENTED_EDGE('',*,*,#454,.F.);
#470=ORIENTED_EDGE('',*,*,#425,.F.);
#471=EDGE_LOOP('',(#466,#468,#469,#470));
#472=FACE_OUTER_BOUND('',#471,.F.);
#473=ADVANCED_FACE('',(#472),#465,.F.);
#474=CARTESIAN_POINT('',(0.E0,0.E0,4.474315780650E-1));
#475=DIRECTION('',(0.E0,0.E0,1.E0));
#476=DIRECTION('',(-1.E0,0.E0,0.E0));
#477=AXIS2_PLACEMENT_3D('',#474,#475,#476);
#478=TOROIDAL_SURFACE('',#477,5.95E-1,6.E-2);
#480=ORIENTED_EDGE('',*,*,#479,.T.);
#482=ORIENTED_EDGE('',*,*,#481,.T.);
#484=ORIENTED_EDGE('',*,*,#483,.F.);
#485=ORIENTED_EDGE('',*,*,#467,.F.);
#486=EDGE_LOOP('',(#480,#482,#484,#485));
#487=FACE_OUTER_BOUND('',#486,.F.);
#488=ADVANCED_FACE('',(#487),#478,.F.);
#489=CARTESIAN_POINT('',(0.E0,0.E0,4.474315780650E-1));
#490=DIRECTION('',(0.E0,0.E0,1.E0));
#491=DIRECTION('',(-1.E0,0.E0,0.E0));
#492=AXIS2_PLACEMENT_3D('',#489,#490,#491);
#493=TOROIDAL_SURFACE('',#492,5.95E-1,6.E-2);
#494=ORIENTED_EDGE('',*,*,#479,.F.);
#495=ORIENTED_EDGE('',*,*,#456,.T.);
#496=ORIENTED_EDGE('',*,*,#483,.T.);
#498=ORIENTED_EDGE('',*,*,#497,.F.);
#499=EDGE_LOOP('',(#494,#495,#496,#498));
#500=FACE_OUTER_BOUND('',#499,.F.);
#501=ADVANCED_FACE('',(#500),#493,.F.);
#502=CARTESIAN_POINT('',(0.E0,0.E0,-4.2E-2));
#503=DIRECTION('',(0.E0,0.E0,1.E0));
#504=DIRECTION('',(-1.E0,0.E0,0.E0));
#505=AXIS2_PLACEMENT_3D('',#502,#503,#504);
#506=CYLINDRICAL_SURFACE('',#505,6.55E-1);
#508=ORIENTED_EDGE('',*,*,#507,.F.);
#510=ORIENTED_EDGE('',*,*,#509,.F.);
#511=ORIENTED_EDGE('',*,*,#497,.T.);
#513=ORIENTED_EDGE('',*,*,#512,.T.);
#514=EDGE_LOOP('',(#508,#510,#511,#513));
#515=FACE_OUTER_BOUND('',#514,.F.);
#516=ADVANCED_FACE('',(#515),#506,.F.);
#517=CARTESIAN_POINT('',(0.E0,0.E0,8.4E-1));
#518=DIRECTION('',(0.E0,0.E0,1.E0));
#519=DIRECTION('',(1.E0,0.E0,0.E0));
#520=AXIS2_PLACEMENT_3D('',#517,#518,#519);
#521=PLANE('',#520);
#523=ORIENTED_EDGE('',*,*,#522,.F.);
#525=ORIENTED_EDGE('',*,*,#524,.F.);
#526=EDGE_LOOP('',(#523,#525));
#527=FACE_OUTER_BOUND('',#526,.F.);
#528=ORIENTED_EDGE('',*,*,#507,.T.);
#530=ORIENTED_EDGE('',*,*,#529,.T.);
#531=EDGE_LOOP('',(#528,#530));
#532=FACE_BOUND('',#531,.F.);
#533=ADVANCED_FACE('',(#527,#532),#521,.T.);
#534=CARTESIAN_POINT('',(0.E0,0.E0,0.E0));
#535=DIRECTION('',(0.E0,0.E0,1.E0));
#536=DIRECTION('',(1.E0,0.E0,0.E0));
#537=AXIS2_PLACEMENT_3D('',#534,#535,#536);
#538=CYLINDRICAL_SURFACE('',#537,6.9E-1);
#540=ORIENTED_EDGE('',*,*,#539,.T.);
#541=ORIENTED_EDGE('',*,*,#522,.T.);
#543=ORIENTED_EDGE('',*,*,#542,.F.);
#545=ORIENTED_EDGE('',*,*,#544,.F.);
#546=EDGE_LOOP('',(#540,#541,#543,#545));
#547=FACE_OUTER_BOUND('',#546,.F.);
#548=ADVANCED_FACE('',(#547),#538,.T.);
#549=CARTESIAN_POINT('',(0.E0,0.E0,0.E0));
#550=DIRECTION('',(0.E0,0.E0,1.E0));
#551=DIRECTION('',(1.E0,0.E0,0.E0));
#552=AXIS2_PLACEMENT_3D('',#549,#550,#551);
#553=CYLINDRICAL_SURFACE('',#552,6.9E-1);
#554=ORIENTED_EDGE('',*,*,#539,.F.);
#556=ORIENTED_EDGE('',*,*,#555,.F.);
#557=ORIENTED_EDGE('',*,*,#542,.T.);
#558=ORIENTED_EDGE('',*,*,#524,.T.);
#559=EDGE_LOOP('',(#554,#556,#557,#558));
#560=FACE_OUTER_BOUND('',#559,.F.);
#561=ADVANCED_FACE('',(#560),#553,.T.);
#562=CARTESIAN_POINT('',(0.E0,0.E0,3.391784025919E-1));
#563=DIRECTION('',(0.E0,0.E0,1.E0));
#564=DIRECTION('',(-1.E0,0.E0,0.E0));
#565=AXIS2_PLACEMENT_3D('',#562,#563,#564);
#566=CONICAL_SURFACE('',#565,5.875E-1,6.E1);
#567=ORIENTED_EDGE('',*,*,#555,.T.);
#569=ORIENTED_EDGE('',*,*,#568,.F.);
#571=ORIENTED_EDGE('',*,*,#570,.T.);
#573=ORIENTED_EDGE('',*,*,#572,.T.);
#574=EDGE_LOOP('',(#567,#569,#571,#573));
#575=FACE_OUTER_BOUND('',#574,.F.);
#576=ADVANCED_FACE('',(#575),#566,.T.);
#577=CARTESIAN_POINT('',(0.E0,0.E0,3.391784025919E-1));
#578=DIRECTION('',(0.E0,0.E0,1.E0));
#579=DIRECTION('',(-1.E0,0.E0,0.E0));
#580=AXIS2_PLACEMENT_3D('',#577,#578,#579);
#581=CONICAL_SURFACE('',#580,5.875E-1,6.E1);
#582=ORIENTED_EDGE('',*,*,#544,.T.);
#583=ORIENTED_EDGE('',*,*,#572,.F.);
#585=ORIENTED_EDGE('',*,*,#584,.F.);
#586=ORIENTED_EDGE('',*,*,#568,.T.);
#587=EDGE_LOOP('',(#582,#583,#585,#586));
#588=FACE_OUTER_BOUND('',#587,.F.);
#589=ADVANCED_FACE('',(#588),#581,.T.);
#590=CARTESIAN_POINT('',(0.E0,0.E0,2.280384757729E-1));
#591=DIRECTION('',(0.E0,0.E0,-1.E0));
#592=DIRECTION('',(1.E0,0.E0,0.E0));
#593=AXIS2_PLACEMENT_3D('',#590,#591,#592);
#594=TOROIDAL_SURFACE('',#593,5.15E-1,6.E-2);
#596=ORIENTED_EDGE('',*,*,#595,.T.);
#597=ORIENTED_EDGE('',*,*,#584,.T.);
#599=ORIENTED_EDGE('',*,*,#598,.F.);
#601=ORIENTED_EDGE('',*,*,#600,.F.);
#602=EDGE_LOOP('',(#596,#597,#599,#601));
#603=FACE_OUTER_BOUND('',#602,.F.);
#604=ADVANCED_FACE('',(#603),#594,.F.);
#605=CARTESIAN_POINT('',(0.E0,0.E0,2.280384757729E-1));
#606=DIRECTION('',(0.E0,0.E0,-1.E0));
#607=DIRECTION('',(1.E0,0.E0,0.E0));
#608=AXIS2_PLACEMENT_3D('',#605,#606,#607);
#609=TOROIDAL_SURFACE('',#608,5.15E-1,6.E-2);
#610=ORIENTED_EDGE('',*,*,#595,.F.);
#612=ORIENTED_EDGE('',*,*,#611,.T.);
#613=ORIENTED_EDGE('',*,*,#598,.T.);
#614=ORIENTED_EDGE('',*,*,#570,.F.);
#615=EDGE_LOOP('',(#610,#612,#613,#614));
#616=FACE_OUTER_BOUND('',#615,.F.);
#617=ADVANCED_FACE('',(#616),#609,.F.);
#618=CARTESIAN_POINT('',(0.E0,0.E0,4.2E-1));
#619=DIRECTION('',(0.E0,0.E0,-1.E0));
#620=DIRECTION('',(1.E0,0.E0,0.E0));
#621=AXIS2_PLACEMENT_3D('',#618,#619,#620);
#622=CYLINDRICAL_SURFACE('',#621,4.55E-1);
#623=ORIENTED_EDGE('',*,*,#361,.T.);
#625=ORIENTED_EDGE('',*,*,#624,.T.);
#626=ORIENTED_EDGE('',*,*,#611,.F.);
#628=ORIENTED_EDGE('',*,*,#627,.F.);
#629=EDGE_LOOP('',(#623,#625,#626,#628));
#630=FACE_OUTER_BOUND('',#629,.F.);
#631=ADVANCED_FACE('',(#630),#622,.T.);
#632=CARTESIAN_POINT('',(0.E0,0.E0,4.2E-1));
#633=DIRECTION('',(0.E0,0.E0,-1.E0));
#634=DIRECTION('',(1.E0,0.E0,0.E0));
#635=AXIS2_PLACEMENT_3D('',#632,#633,#634);
#636=CYLINDRICAL_SURFACE('',#635,4.55E-1);
#637=ORIENTED_EDGE('',*,*,#363,.T.);
#638=ORIENTED_EDGE('',*,*,#627,.T.);
#639=ORIENTED_EDGE('',*,*,#600,.T.);
#640=ORIENTED_EDGE('',*,*,#624,.F.);
#641=EDGE_LOOP('',(#637,#638,#639,#640));
#642=FACE_OUTER_BOUND('',#641,.F.);
#643=ADVANCED_FACE('',(#642),#636,.T.);
#644=CARTESIAN_POINT('',(0.E0,0.E0,-4.2E-2));
#645=DIRECTION('',(0.E0,0.E0,1.E0));
#646=DIRECTION('',(-1.E0,0.E0,0.E0));
#647=AXIS2_PLACEMENT_3D('',#644,#645,#646);
#648=CYLINDRICAL_SURFACE('',#647,6.55E-1);
#649=ORIENTED_EDGE('',*,*,#529,.F.);
#650=ORIENTED_EDGE('',*,*,#512,.F.);
#651=ORIENTED_EDGE('',*,*,#481,.F.);
#652=ORIENTED_EDGE('',*,*,#509,.T.);
#653=EDGE_LOOP('',(#649,#650,#651,#652));
#654=FACE_OUTER_BOUND('',#653,.F.);
#655=ADVANCED_FACE('',(#654),#648,.F.);
#656=CLOSED_SHELL('',(#373,#388,#401,#417,#432,#445,#460,#473,#488,#501,#516,
#533,#548,#561,#576,#589,#604,#617,#631,#643,#655));
#657=MANIFOLD_SOLID_BREP('',#656);
#658=DIMENSIONAL_EXPONENTS(1.E0,0.E0,0.E0,0.E0,0.E0,0.E0,0.E0);
#659=(LENGTH_UNIT()NAMED_UNIT(*)SI_UNIT(.MILLI.,.METRE.));
#660=LENGTH_MEASURE_WITH_UNIT(LENGTH_MEASURE(2.54E1),#659);
#661=(CONVERSION_BASED_UNIT('INCH',#660)LENGTH_UNIT()NAMED_UNIT(#658));
#662=DIMENSIONAL_EXPONENTS(0.E0,0.E0,0.E0,0.E0,0.E0,0.E0,0.E0);
#663=(NAMED_UNIT(*)PLANE_ANGLE_UNIT()SI_UNIT($,.RADIAN.));
#664=PLANE_ANGLE_MEASURE_WITH_UNIT(PLANE_ANGLE_MEASURE(1.745329251994E-2),#663);
#665=(CONVERSION_BASED_UNIT('DEGREE',#664)NAMED_UNIT(#662)PLANE_ANGLE_UNIT());
#666=(NAMED_UNIT(*)SI_UNIT($,.STERADIAN.)SOLID_ANGLE_UNIT());
#667=UNCERTAINTY_MEASURE_WITH_UNIT(LENGTH_MEASURE(2.124626756685E-4),#661,
'distance_accuracy_value',
'Maximum model space distance between geometric entities at asserted connectivities');
#668=(GEOMETRIC_REPRESENTATION_CONTEXT(3)GLOBAL_UNCERTAINTY_ASSIGNED_CONTEXT((
#667))GLOBAL_UNIT_ASSIGNED_CONTEXT((#661,#665,#666))REPRESENTATION_CONTEXT
('ID1','3'));
#670=APPLICATION_CONTEXT('automotive_design');
#671=APPLICATION_PROTOCOL_DEFINITION('draft international standard',
'automotive_design',1998,#670);
#672=PRODUCT_DEFINITION_CONTEXT('part definition',#670,'design');
#673=PRODUCT_CONTEXT('',#670,'mechanical');
#674=PRODUCT('ILC81070801','ILC81070801','NOT SPECIFIED',(#673));
#675=PRODUCT_DEFINITION_FORMATION_WITH_SPECIFIED_SOURCE('','LAST_VERSION',#674,
.MADE.);
#679=PRODUCT_TYPE('part','',(#674));
#116=CIRCLE('',#115,2.5E-1);
#121=CIRCLE('',#120,2.5E-1);
#126=CIRCLE('',#125,4.55E-1);
#131=CIRCLE('',#130,4.55E-1);
#144=CIRCLE('',#143,2.5E-1);
#149=CIRCLE('',#148,2.5E-1);
#162=CIRCLE('',#161,4.25E-1);
#167=CIRCLE('',#166,4.25E-1);
#172=CIRCLE('',#171,4.25E-1);
#185=CIRCLE('',#184,4.25E-1);
#190=CIRCLE('',#189,6.E-2);
#195=CIRCLE('',#194,6.E-2);
#200=CIRCLE('',#199,6.25E-1);
#205=CIRCLE('',#204,6.25E-1);
#210=CIRCLE('',#209,6.55E-1);
#215=CIRCLE('',#214,6.9E-1);
#220=CIRCLE('',#219,6.9E-1);
#225=CIRCLE('',#224,6.55E-1);
#230=CIRCLE('',#229,6.55E-1);
#243=CIRCLE('',#242,6.9E-1);
#248=CIRCLE('',#247,4.85E-1);
#253=CIRCLE('',#252,6.9E-1);
#262=CIRCLE('',#261,4.85E-1);
#271=CIRCLE('',#270,6.E-2);
#276=CIRCLE('',#275,6.E-2);
#281=CIRCLE('',#280,4.55E-1);
#286=CIRCLE('',#285,4.55E-1);
#303=CIRCLE('',#302,6.55E-1);
#361=EDGE_CURVE('',#338,#339,#126,.T.);
#363=EDGE_CURVE('',#339,#338,#131,.T.);
#367=EDGE_CURVE('',#326,#327,#116,.T.);
#369=EDGE_CURVE('',#327,#326,#121,.T.);
#380=EDGE_CURVE('',#327,#323,#139,.T.);
#382=EDGE_CURVE('',#322,#323,#144,.T.);
#384=EDGE_CURVE('',#326,#322,#135,.T.);
#396=EDGE_CURVE('',#322,#323,#149,.T.);
#407=EDGE_CURVE('',#314,#318,#162,.T.);
#409=EDGE_CURVE('',#314,#318,#167,.T.);
#423=EDGE_CURVE('',#314,#315,#153,.T.);
#425=EDGE_CURVE('',#315,#319,#185,.T.);
#427=EDGE_CURVE('',#318,#319,#157,.T.);
#441=EDGE_CURVE('',#315,#319,#172,.T.);
#451=EDGE_CURVE('',#315,#349,#176,.T.);
#454=EDGE_CURVE('',#319,#351,#180,.T.);
#456=EDGE_CURVE('',#349,#351,#205,.T.);
#467=EDGE_CURVE('',#349,#351,#200,.T.);
#479=EDGE_CURVE('',#349,#333,#190,.T.);
#481=EDGE_CURVE('',#333,#335,#303,.T.);
#483=EDGE_CURVE('',#351,#335,#195,.T.);
#497=EDGE_CURVE('',#333,#335,#210,.T.);
#507=EDGE_CURVE('',#330,#331,#225,.T.);
#509=EDGE_CURVE('',#333,#330,#307,.T.);
#512=EDGE_CURVE('',#335,#331,#298,.T.);
#522=EDGE_CURVE('',#310,#311,#215,.T.);
#524=EDGE_CURVE('',#311,#310,#220,.T.);
#529=EDGE_CURVE('',#331,#330,#230,.T.);
#539=EDGE_CURVE('',#341,#310,#234,.T.);
#542=EDGE_CURVE('',#343,#311,#238,.T.);
#544=EDGE_CURVE('',#341,#343,#253,.T.);
#555=EDGE_CURVE('',#343,#341,#243,.T.);
#568=EDGE_CURVE('',#353,#341,#266,.T.);
#570=EDGE_CURVE('',#353,#355,#248,.T.);
#572=EDGE_CURVE('',#355,#343,#257,.T.);
#584=EDGE_CURVE('',#353,#355,#262,.T.);
#595=EDGE_CURVE('',#345,#353,#271,.T.);
#598=EDGE_CURVE('',#347,#355,#276,.T.);
#600=EDGE_CURVE('',#345,#347,#281,.T.);
#611=EDGE_CURVE('',#345,#347,#286,.T.);
#624=EDGE_CURVE('',#339,#347,#294,.T.);
#627=EDGE_CURVE('',#338,#345,#290,.T.);
#669=ADVANCED_BREP_SHAPE_REPRESENTATION('',(#657),#668);
#676=PRODUCT_DEFINITION('part definition','',#675,#672);
#677=PRODUCT_DEFINITION_SHAPE('','SHAPE FOR ILC81070801.',#676);
#678=SHAPE_DEFINITION_REPRESENTATION(#677,#669);
ENDSEC;
END-ISO-10303-21;
