ISO-10303-21;
HEADER;
FILE_DESCRIPTION((''),'2;1');
FILE_NAME('ILC81071501','2005-08-25T',('KR'),(''),
'PRO/ENGINEER BY PARAMETRIC TECHNOLOGY CORPORATION, 2004290',
'PRO/ENGINEER BY PARAMETRIC TECHNOLOGY CORPORATION, 2004290','');
FILE_SCHEMA(('AUTOMOTIVE_DESIGN_CC2 { 1 2 10303 214 -1 1 5 2 }'));
ENDSEC;
DATA;
#1=COLOUR_RGB('',0.E0,0.E0,4.7E-1);
#2=COLOUR_RGB('',0.E0,0.E0,6.E-1);
#3=COLOUR_RGB('',0.E0,0.E0,8.E-1);
#4=DRAUGHTING_PRE_DEFINED_COLOUR('blue');
#5=COLOUR_RGB('',0.E0,2.E-1,1.E0);
#6=COLOUR_RGB('',0.E0,3.3E-1,0.E0);
#7=COLOUR_RGB('',0.E0,3.3E-1,3.3E-1);
#8=COLOUR_RGB('',0.E0,4.E-1,0.E0);
#9=COLOUR_RGB('',0.E0,4.E-1,4.E-1);
#10=COLOUR_RGB('',0.E0,4.E-1,1.E0);
#11=COLOUR_RGB('',0.E0,5.3E-1,5.3E-1);
#12=COLOUR_RGB('',0.E0,6.E-1,0.E0);
#13=COLOUR_RGB('',0.E0,6.E-1,6.E-1);
#14=COLOUR_RGB('',0.E0,6.E-1,1.E0);
#15=COLOUR_RGB('',0.E0,8.E-1,0.E0);
#16=COLOUR_RGB('',0.E0,8.E-1,8.E-1);
#17=COLOUR_RGB('',0.E0,8.E-1,1.E0);
#18=COLOUR_RGB('',0.E0,9.3E-1,0.E0);
#19=COLOUR_RGB('',0.E0,9.3E-1,9.3E-1);
#20=DRAUGHTING_PRE_DEFINED_COLOUR('green');
#21=COLOUR_RGB('',0.E0,1.E0,2.E-1);
#22=COLOUR_RGB('',0.E0,1.E0,4.E-1);
#23=COLOUR_RGB('',0.E0,1.E0,6.E-1);
#24=COLOUR_RGB('',0.E0,1.E0,8.E-1);
#25=DRAUGHTING_PRE_DEFINED_COLOUR('cyan');
#26=COLOUR_RGB('',7.E-2,7.E-2,1.E0);
#27=COLOUR_RGB('',2.E-1,1.E0,0.E0);
#28=COLOUR_RGB('',2.E-1,1.E0,2.E-1);
#29=COLOUR_RGB('',2.E-1,1.E0,1.E0);
#30=COLOUR_RGB('',2.7E-1,0.E0,4.E-1);
#31=COLOUR_RGB('',2.7E-1,2.7E-1,0.E0);
#32=COLOUR_RGB('',2.7E-1,2.7E-1,1.E0);
#33=COLOUR_RGB('',3.3E-1,0.E0,0.E0);
#34=COLOUR_RGB('',3.3E-1,0.E0,3.3E-1);
#35=COLOUR_RGB('',3.3E-1,0.E0,5.3E-1);
#36=COLOUR_RGB('',4.E-1,0.E0,4.E-1);
#37=COLOUR_RGB('',4.E-1,0.E0,6.7E-1);
#38=COLOUR_RGB('',4.E-1,1.3E-1,0.E0);
#39=COLOUR_RGB('',4.E-1,4.E-1,0.E0);
#40=COLOUR_RGB('',4.E-1,4.E-1,1.E0);
#41=COLOUR_RGB('',4.E-1,1.E0,0.E0);
#42=COLOUR_RGB('',4.E-1,1.E0,4.E-1);
#43=COLOUR_RGB('',4.E-1,1.E0,1.E0);
#44=COLOUR_RGB('',4.7E-1,0.E0,0.E0);
#45=COLOUR_RGB('',4.7E-1,0.E0,8.E-1);
#46=COLOUR_RGB('',4.7E-1,0.E0,8.7E-1);
#47=COLOUR_RGB('',4.7E-1,2.E-1,7.E-2);
#48=COLOUR_RGB('',4.7E-1,4.7E-1,4.7E-1);
#49=COLOUR_RGB('',5.3E-1,0.E0,9.3E-1);
#50=COLOUR_RGB('',5.3E-1,2.7E-1,1.3E-1);
#51=COLOUR_RGB('',5.3E-1,5.3E-1,1.E0);
#52=COLOUR_RGB('',6.E-1,0.E0,6.E-1);
#53=COLOUR_RGB('',6.E-1,2.E-1,1.E0);
#54=COLOUR_RGB('',6.E-1,3.3E-1,2.E-1);
#55=COLOUR_RGB('',6.E-1,6.E-1,0.E0);
#56=COLOUR_RGB('',6.E-1,6.E-1,1.E0);
#57=COLOUR_RGB('',6.E-1,1.E0,6.E-1);
#58=COLOUR_RGB('',6.E-1,1.E0,1.E0);
#59=COLOUR_RGB('',6.7E-1,0.E0,0.E0);
#60=COLOUR_RGB('',6.7E-1,0.E0,5.3E-1);
#61=COLOUR_RGB('',6.7E-1,4.E-1,2.7E-1);
#62=COLOUR_RGB('',6.7E-1,4.E-1,1.E0);
#63=COLOUR_RGB('',6.7E-1,6.7E-1,1.E0);
#64=COLOUR_RGB('',6.7E-1,1.E0,0.E0);
#65=COLOUR_RGB('',7.3E-1,2.7E-1,1.E0);
#66=COLOUR_RGB('',7.3E-1,4.E-1,0.E0);
#67=COLOUR_RGB('',7.3E-1,4.7E-1,3.3E-1);
#68=COLOUR_RGB('',7.3E-1,7.3E-1,7.3E-1);
#69=COLOUR_RGB('',8.E-1,0.E0,8.E-1);
#70=COLOUR_RGB('',8.E-1,5.3E-1,4.E-1);
#71=COLOUR_RGB('',8.E-1,6.E-1,1.E0);
#72=COLOUR_RGB('',8.E-1,8.E-1,0.E0);
#73=COLOUR_RGB('',8.E-1,8.E-1,1.E0);
#74=COLOUR_RGB('',8.E-1,1.E0,8.E-1);
#75=COLOUR_RGB('',8.E-1,1.E0,1.E0);
#76=COLOUR_RGB('',8.7E-1,0.E0,0.E0);
#77=COLOUR_RGB('',8.7E-1,6.E-1,4.7E-1);
#78=COLOUR_RGB('',9.3E-1,0.E0,9.3E-1);
#79=COLOUR_RGB('',9.3E-1,6.7E-1,5.3E-1);
#80=COLOUR_RGB('',9.3E-1,8.E-1,1.E0);
#81=COLOUR_RGB('',9.3E-1,9.3E-1,0.E0);
#82=COLOUR_RGB('',9.3E-1,1.E0,9.3E-1);
#83=COLOUR_RGB('',9.3E-1,1.E0,1.E0);
#84=DRAUGHTING_PRE_DEFINED_COLOUR('red');
#85=COLOUR_RGB('',1.E0,0.E0,2.7E-1);
#86=COLOUR_RGB('',1.E0,0.E0,4.7E-1);
#87=DRAUGHTING_PRE_DEFINED_COLOUR('magenta');
#88=COLOUR_RGB('',1.E0,7.E-2,7.E-2);
#89=COLOUR_RGB('',1.E0,2.E-1,1.E0);
#90=COLOUR_RGB('',1.E0,2.7E-1,0.E0);
#91=COLOUR_RGB('',1.E0,2.7E-1,2.7E-1);
#92=COLOUR_RGB('',1.E0,4.E-1,1.E0);
#93=COLOUR_RGB('',1.E0,4.7E-1,0.E0);
#94=COLOUR_RGB('',1.E0,4.7E-1,4.7E-1);
#95=COLOUR_RGB('',1.E0,4.7E-1,5.3E-1);
#96=COLOUR_RGB('',1.E0,6.E-1,1.E0);
#97=COLOUR_RGB('',1.E0,6.7E-1,0.E0);
#98=COLOUR_RGB('',1.E0,6.7E-1,6.7E-1);
#99=COLOUR_RGB('',1.E0,7.3E-1,5.3E-1);
#100=COLOUR_RGB('',1.E0,7.3E-1,6.E-1);
#101=COLOUR_RGB('',1.E0,8.E-1,8.E-1);
#102=COLOUR_RGB('',1.E0,8.E-1,1.E0);
#103=COLOUR_RGB('',1.E0,8.7E-1,0.E0);
#104=COLOUR_RGB('',1.E0,9.3E-1,9.3E-1);
#105=COLOUR_RGB('',1.E0,9.3E-1,1.E0);
#106=DRAUGHTING_PRE_DEFINED_COLOUR('yellow');
#107=COLOUR_RGB('',1.E0,1.E0,1.3E-1);
#108=COLOUR_RGB('',1.E0,1.E0,3.3E-1);
#109=COLOUR_RGB('',1.E0,1.E0,5.3E-1);
#110=COLOUR_RGB('',1.E0,1.E0,7.3E-1);
#111=COLOUR_RGB('',1.E0,1.E0,9.3E-1);
#112=CARTESIAN_POINT('',(0.E0,0.E0,0.E0));
#113=DIRECTION('',(0.E0,0.E0,-1.E0));
#114=DIRECTION('',(1.E0,0.E0,0.E0));
#115=AXIS2_PLACEMENT_3D('',#112,#113,#114);
#117=CARTESIAN_POINT('',(0.E0,0.E0,0.E0));
#118=DIRECTION('',(0.E0,0.E0,-1.E0));
#119=DIRECTION('',(-1.E0,0.E0,0.E0));
#120=AXIS2_PLACEMENT_3D('',#117,#118,#119);
#122=CARTESIAN_POINT('',(0.E0,0.E0,0.E0));
#123=DIRECTION('',(0.E0,0.E0,-1.E0));
#124=DIRECTION('',(1.E0,0.E0,0.E0));
#125=AXIS2_PLACEMENT_3D('',#122,#123,#124);
#127=CARTESIAN_POINT('',(0.E0,0.E0,0.E0));
#128=DIRECTION('',(0.E0,0.E0,-1.E0));
#129=DIRECTION('',(-1.E0,0.E0,0.E0));
#130=AXIS2_PLACEMENT_3D('',#127,#128,#129);
#132=CARTESIAN_POINT('',(0.E0,0.E0,3.E-2));
#133=DIRECTION('',(0.E0,0.E0,-1.E0));
#134=DIRECTION('',(1.E0,0.E0,0.E0));
#135=AXIS2_PLACEMENT_3D('',#132,#133,#134);
#137=DIRECTION('',(0.E0,0.E0,-1.E0));
#138=VECTOR('',#137,3.E-2);
#139=CARTESIAN_POINT('',(-2.58E-1,0.E0,3.E-2));
#140=LINE('',#139,#138);
#141=CARTESIAN_POINT('',(0.E0,0.E0,3.E-2));
#142=DIRECTION('',(0.E0,0.E0,1.E0));
#143=DIRECTION('',(1.E0,0.E0,0.E0));
#144=AXIS2_PLACEMENT_3D('',#141,#142,#143);
#146=DIRECTION('',(0.E0,0.E0,-1.E0));
#147=VECTOR('',#146,3.E-2);
#148=CARTESIAN_POINT('',(2.58E-1,0.E0,3.E-2));
#149=LINE('',#148,#147);
#150=CARTESIAN_POINT('',(0.E0,0.E0,3.E-2));
#151=DIRECTION('',(0.E0,0.E0,-1.E0));
#152=DIRECTION('',(1.E0,0.E0,0.E0));
#153=AXIS2_PLACEMENT_3D('',#150,#151,#152);
#155=CARTESIAN_POINT('',(0.E0,0.E0,3.E-2));
#156=DIRECTION('',(0.E0,0.E0,1.E0));
#157=DIRECTION('',(1.E0,0.E0,0.E0));
#158=AXIS2_PLACEMENT_3D('',#155,#156,#157);
#160=CARTESIAN_POINT('',(0.E0,0.E0,4.240415587219E-1));
#161=DIRECTION('',(0.E0,0.E0,-1.E0));
#162=DIRECTION('',(1.E0,0.E0,0.E0));
#163=AXIS2_PLACEMENT_3D('',#160,#161,#162);
#165=DIRECTION('',(-8.660254037844E-1,0.E0,-5.E-1));
#166=VECTOR('',#165,7.880831174438E-1);
#167=CARTESIAN_POINT('',(1.12E0,0.E0,4.240415587219E-1));
#168=LINE('',#167,#166);
#169=DIRECTION('',(8.660254037844E-1,0.E0,-5.E-1));
#170=VECTOR('',#169,7.880831174438E-1);
#171=CARTESIAN_POINT('',(-1.12E0,0.E0,4.240415587219E-1));
#172=LINE('',#171,#170);
#173=CARTESIAN_POINT('',(0.E0,0.E0,4.240415587219E-1));
#174=DIRECTION('',(0.E0,0.E0,1.E0));
#175=DIRECTION('',(1.E0,0.E0,0.E0));
#176=AXIS2_PLACEMENT_3D('',#173,#174,#175);
#178=CARTESIAN_POINT('',(1.09E0,0.E0,4.760030829490E-1));
#179=DIRECTION('',(0.E0,1.E0,0.E0));
#180=DIRECTION('',(1.E0,0.E0,0.E0));
#181=AXIS2_PLACEMENT_3D('',#178,#179,#180);
#183=CARTESIAN_POINT('',(-1.09E0,0.E0,4.760030829490E-1));
#184=DIRECTION('',(0.E0,-1.E0,0.E0));
#185=DIRECTION('',(-1.E0,0.E0,0.E0));
#186=AXIS2_PLACEMENT_3D('',#183,#184,#185);
#188=CARTESIAN_POINT('',(0.E0,0.E0,4.760030829490E-1));
#189=DIRECTION('',(0.E0,0.E0,1.E0));
#190=DIRECTION('',(1.E0,0.E0,0.E0));
#191=AXIS2_PLACEMENT_3D('',#188,#189,#190);
#193=CARTESIAN_POINT('',(0.E0,0.E0,4.760030829490E-1));
#194=DIRECTION('',(0.E0,0.E0,-1.E0));
#195=DIRECTION('',(1.E0,0.E0,0.E0));
#196=AXIS2_PLACEMENT_3D('',#193,#194,#195);
#198=CARTESIAN_POINT('',(0.E0,0.E0,1.E0));
#199=DIRECTION('',(0.E0,0.E0,1.E0));
#200=DIRECTION('',(1.E0,0.E0,0.E0));
#201=AXIS2_PLACEMENT_3D('',#198,#199,#200);
#203=CARTESIAN_POINT('',(0.E0,0.E0,1.E0));
#204=DIRECTION('',(0.E0,0.E0,1.E0));
#205=DIRECTION('',(-1.E0,0.E0,0.E0));
#206=AXIS2_PLACEMENT_3D('',#203,#204,#205);
#208=CARTESIAN_POINT('',(0.E0,0.E0,1.E0));
#209=DIRECTION('',(0.E0,0.E0,-1.E0));
#210=DIRECTION('',(1.E0,0.E0,0.E0));
#211=AXIS2_PLACEMENT_3D('',#208,#209,#210);
#213=CARTESIAN_POINT('',(0.E0,0.E0,1.E0));
#214=DIRECTION('',(0.E0,0.E0,-1.E0));
#215=DIRECTION('',(-1.E0,0.E0,0.E0));
#216=AXIS2_PLACEMENT_3D('',#213,#214,#215);
#218=DIRECTION('',(0.E0,0.E0,1.E0));
#219=VECTOR('',#218,5.76E-1);
#220=CARTESIAN_POINT('',(1.18E0,0.E0,4.24E-1));
#221=LINE('',#220,#219);
#222=DIRECTION('',(8.660254037844E-1,0.E0,5.E-1));
#223=VECTOR('',#222,8.48E-1);
#224=CARTESIAN_POINT('',(4.456104575908E-1,0.E0,0.E0));
#225=LINE('',#224,#223);
#226=CARTESIAN_POINT('',(0.E0,0.E0,4.24E-1));
#227=DIRECTION('',(0.E0,0.E0,1.E0));
#228=DIRECTION('',(1.E0,0.E0,0.E0));
#229=AXIS2_PLACEMENT_3D('',#226,#227,#228);
#231=DIRECTION('',(-8.660254037844E-1,0.E0,5.E-1));
#232=VECTOR('',#231,8.48E-1);
#233=CARTESIAN_POINT('',(-4.456104575908E-1,0.E0,0.E0));
#234=LINE('',#233,#232);
#235=CARTESIAN_POINT('',(0.E0,0.E0,4.24E-1));
#236=DIRECTION('',(0.E0,0.E0,1.E0));
#237=DIRECTION('',(-1.E0,0.E0,0.E0));
#238=AXIS2_PLACEMENT_3D('',#235,#236,#237);
#240=DIRECTION('',(0.E0,0.E0,1.E0));
#241=VECTOR('',#240,5.76E-1);
#242=CARTESIAN_POINT('',(-1.18E0,0.E0,4.24E-1));
#243=LINE('',#242,#241);
#244=DIRECTION('',(0.E0,0.E0,-1.E0));
#245=VECTOR('',#244,5.239969170510E-1);
#246=CARTESIAN_POINT('',(1.15E0,0.E0,1.E0));
#247=LINE('',#246,#245);
#248=DIRECTION('',(0.E0,0.E0,-1.E0));
#249=VECTOR('',#248,5.239969170510E-1);
#250=CARTESIAN_POINT('',(-1.15E0,0.E0,1.E0));
#251=LINE('',#250,#249);
#252=CARTESIAN_POINT('',(1.18E0,0.E0,1.E0));
#253=CARTESIAN_POINT('',(-1.18E0,0.E0,1.E0));
#254=VERTEX_POINT('',#252);
#255=VERTEX_POINT('',#253);
#256=CARTESIAN_POINT('',(1.12E0,0.E0,4.240415587219E-1));
#257=CARTESIAN_POINT('',(4.375E-1,0.E0,3.E-2));
#258=VERTEX_POINT('',#256);
#259=VERTEX_POINT('',#257);
#260=CARTESIAN_POINT('',(-1.12E0,0.E0,4.240415587219E-1));
#261=CARTESIAN_POINT('',(-4.375E-1,0.E0,3.E-2));
#262=VERTEX_POINT('',#260);
#263=VERTEX_POINT('',#261);
#264=CARTESIAN_POINT('',(2.58E-1,0.E0,3.E-2));
#265=CARTESIAN_POINT('',(-2.58E-1,0.E0,3.E-2));
#266=VERTEX_POINT('',#264);
#267=VERTEX_POINT('',#265);
#268=CARTESIAN_POINT('',(2.58E-1,0.E0,0.E0));
#269=CARTESIAN_POINT('',(-2.58E-1,0.E0,0.E0));
#270=VERTEX_POINT('',#268);
#271=VERTEX_POINT('',#269);
#272=CARTESIAN_POINT('',(1.15E0,0.E0,1.E0));
#273=CARTESIAN_POINT('',(-1.15E0,0.E0,1.E0));
#274=VERTEX_POINT('',#272);
#275=VERTEX_POINT('',#273);
#276=CARTESIAN_POINT('',(1.15E0,0.E0,4.760030829490E-1));
#277=VERTEX_POINT('',#276);
#278=CARTESIAN_POINT('',(-1.15E0,0.E0,4.760030829490E-1));
#279=VERTEX_POINT('',#278);
#280=CARTESIAN_POINT('',(4.456104575908E-1,0.E0,0.E0));
#281=CARTESIAN_POINT('',(-4.456104575908E-1,0.E0,0.E0));
#282=VERTEX_POINT('',#280);
#283=VERTEX_POINT('',#281);
#284=CARTESIAN_POINT('',(1.18E0,0.E0,4.24E-1));
#285=CARTESIAN_POINT('',(-1.18E0,0.E0,4.24E-1));
#286=VERTEX_POINT('',#284);
#287=VERTEX_POINT('',#285);
#288=CARTESIAN_POINT('',(0.E0,0.E0,0.E0));
#289=DIRECTION('',(0.E0,0.E0,1.E0));
#290=DIRECTION('',(1.E0,0.E0,0.E0));
#291=AXIS2_PLACEMENT_3D('',#288,#289,#290);
#292=PLANE('',#291);
#294=ORIENTED_EDGE('',*,*,#293,.F.);
#296=ORIENTED_EDGE('',*,*,#295,.F.);
#297=EDGE_LOOP('',(#294,#296));
#298=FACE_OUTER_BOUND('',#297,.F.);
#300=ORIENTED_EDGE('',*,*,#299,.T.);
#302=ORIENTED_EDGE('',*,*,#301,.T.);
#303=EDGE_LOOP('',(#300,#302));
#304=FACE_BOUND('',#303,.F.);
#305=ADVANCED_FACE('',(#298,#304),#292,.F.);
#306=CARTESIAN_POINT('',(0.E0,0.E0,1.05E0));
#307=DIRECTION('',(0.E0,0.E0,-1.E0));
#308=DIRECTION('',(1.E0,0.E0,0.E0));
#309=AXIS2_PLACEMENT_3D('',#306,#307,#308);
#310=CYLINDRICAL_SURFACE('',#309,2.58E-1);
#311=ORIENTED_EDGE('',*,*,#299,.F.);
#313=ORIENTED_EDGE('',*,*,#312,.F.);
#315=ORIENTED_EDGE('',*,*,#314,.T.);
#317=ORIENTED_EDGE('',*,*,#316,.T.);
#318=EDGE_LOOP('',(#311,#313,#315,#317));
#319=FACE_OUTER_BOUND('',#318,.F.);
#320=ADVANCED_FACE('',(#319),#310,.F.);
#321=CARTESIAN_POINT('',(0.E0,0.E0,1.05E0));
#322=DIRECTION('',(0.E0,0.E0,-1.E0));
#323=DIRECTION('',(1.E0,0.E0,0.E0));
#324=AXIS2_PLACEMENT_3D('',#321,#322,#323);
#325=CYLINDRICAL_SURFACE('',#324,2.58E-1);
#326=ORIENTED_EDGE('',*,*,#301,.F.);
#327=ORIENTED_EDGE('',*,*,#316,.F.);
#329=ORIENTED_EDGE('',*,*,#328,.F.);
#330=ORIENTED_EDGE('',*,*,#312,.T.);
#331=EDGE_LOOP('',(#326,#327,#329,#330));
#332=FACE_OUTER_BOUND('',#331,.F.);
#333=ADVANCED_FACE('',(#332),#325,.F.);
#334=CARTESIAN_POINT('',(0.E0,0.E0,3.E-2));
#335=DIRECTION('',(0.E0,0.E0,-1.E0));
#336=DIRECTION('',(1.E0,0.E0,0.E0));
#337=AXIS2_PLACEMENT_3D('',#334,#335,#336);
#338=PLANE('',#337);
#340=ORIENTED_EDGE('',*,*,#339,.T.);
#342=ORIENTED_EDGE('',*,*,#341,.F.);
#343=EDGE_LOOP('',(#340,#342));
#344=FACE_OUTER_BOUND('',#343,.F.);
#345=ORIENTED_EDGE('',*,*,#328,.T.);
#346=ORIENTED_EDGE('',*,*,#314,.F.);
#347=EDGE_LOOP('',(#345,#346));
#348=FACE_BOUND('',#347,.F.);
#349=ADVANCED_FACE('',(#344,#348),#338,.F.);
#350=CARTESIAN_POINT('',(0.E0,0.E0,2.270207793610E-1));
#351=DIRECTION('',(0.E0,0.E0,1.E0));
#352=DIRECTION('',(-1.E0,0.E0,0.E0));
#353=AXIS2_PLACEMENT_3D('',#350,#351,#352);
#354=CONICAL_SURFACE('',#353,7.7875E-1,6.E1);
#356=ORIENTED_EDGE('',*,*,#355,.F.);
#358=ORIENTED_EDGE('',*,*,#357,.T.);
#360=ORIENTED_EDGE('',*,*,#359,.T.);
#361=ORIENTED_EDGE('',*,*,#339,.F.);
#362=EDGE_LOOP('',(#356,#358,#360,#361));
#363=FACE_OUTER_BOUND('',#362,.F.);
#364=ADVANCED_FACE('',(#363),#354,.F.);
#365=CARTESIAN_POINT('',(0.E0,0.E0,2.270207793610E-1));
#366=DIRECTION('',(0.E0,0.E0,1.E0));
#367=DIRECTION('',(-1.E0,0.E0,0.E0));
#368=AXIS2_PLACEMENT_3D('',#365,#366,#367);
#369=CONICAL_SURFACE('',#368,7.7875E-1,6.E1);
#370=ORIENTED_EDGE('',*,*,#355,.T.);
#371=ORIENTED_EDGE('',*,*,#341,.T.);
#372=ORIENTED_EDGE('',*,*,#359,.F.);
#374=ORIENTED_EDGE('',*,*,#373,.F.);
#375=EDGE_LOOP('',(#370,#371,#372,#374));
#376=FACE_OUTER_BOUND('',#375,.F.);
#377=ADVANCED_FACE('',(#376),#369,.F.);
#378=CARTESIAN_POINT('',(0.E0,0.E0,4.760030829490E-1));
#379=DIRECTION('',(0.E0,0.E0,-1.E0));
#380=DIRECTION('',(1.E0,0.E0,0.E0));
#381=AXIS2_PLACEMENT_3D('',#378,#379,#380);
#382=TOROIDAL_SURFACE('',#381,1.09E0,6.E-2);
#384=ORIENTED_EDGE('',*,*,#383,.T.);
#385=ORIENTED_EDGE('',*,*,#373,.T.);
#387=ORIENTED_EDGE('',*,*,#386,.F.);
#389=ORIENTED_EDGE('',*,*,#388,.F.);
#390=EDGE_LOOP('',(#384,#385,#387,#389));
#391=FACE_OUTER_BOUND('',#390,.F.);
#392=ADVANCED_FACE('',(#391),#382,.F.);
#393=CARTESIAN_POINT('',(0.E0,0.E0,4.760030829490E-1));
#394=DIRECTION('',(0.E0,0.E0,-1.E0));
#395=DIRECTION('',(1.E0,0.E0,0.E0));
#396=AXIS2_PLACEMENT_3D('',#393,#394,#395);
#397=TOROIDAL_SURFACE('',#396,1.09E0,6.E-2);
#398=ORIENTED_EDGE('',*,*,#383,.F.);
#400=ORIENTED_EDGE('',*,*,#399,.T.);
#401=ORIENTED_EDGE('',*,*,#386,.T.);
#402=ORIENTED_EDGE('',*,*,#357,.F.);
#403=EDGE_LOOP('',(#398,#400,#401,#402));
#404=FACE_OUTER_BOUND('',#403,.F.);
#405=ADVANCED_FACE('',(#404),#397,.F.);
#406=CARTESIAN_POINT('',(0.E0,0.E0,1.05E0));
#407=DIRECTION('',(0.E0,0.E0,-1.E0));
#408=DIRECTION('',(1.E0,0.E0,0.E0));
#409=AXIS2_PLACEMENT_3D('',#406,#407,#408);
#410=CYLINDRICAL_SURFACE('',#409,1.15E0);
#412=ORIENTED_EDGE('',*,*,#411,.T.);
#414=ORIENTED_EDGE('',*,*,#413,.T.);
#415=ORIENTED_EDGE('',*,*,#399,.F.);
#417=ORIENTED_EDGE('',*,*,#416,.F.);
#418=EDGE_LOOP('',(#412,#414,#415,#417));
#419=FACE_OUTER_BOUND('',#418,.F.);
#420=ADVANCED_FACE('',(#419),#410,.F.);
#421=CARTESIAN_POINT('',(0.E0,0.E0,1.E0));
#422=DIRECTION('',(0.E0,0.E0,1.E0));
#423=DIRECTION('',(1.E0,0.E0,0.E0));
#424=AXIS2_PLACEMENT_3D('',#421,#422,#423);
#425=PLANE('',#424);
#427=ORIENTED_EDGE('',*,*,#426,.F.);
#429=ORIENTED_EDGE('',*,*,#428,.F.);
#430=EDGE_LOOP('',(#427,#429));
#431=FACE_OUTER_BOUND('',#430,.F.);
#432=ORIENTED_EDGE('',*,*,#411,.F.);
#434=ORIENTED_EDGE('',*,*,#433,.F.);
#435=EDGE_LOOP('',(#432,#434));
#436=FACE_BOUND('',#435,.F.);
#437=ADVANCED_FACE('',(#431,#436),#425,.T.);
#438=CARTESIAN_POINT('',(0.E0,0.E0,0.E0));
#439=DIRECTION('',(0.E0,0.E0,1.E0));
#440=DIRECTION('',(1.E0,0.E0,0.E0));
#441=AXIS2_PLACEMENT_3D('',#438,#439,#440);
#442=CYLINDRICAL_SURFACE('',#441,1.18E0);
#444=ORIENTED_EDGE('',*,*,#443,.F.);
#446=ORIENTED_EDGE('',*,*,#445,.T.);
#447=ORIENTED_EDGE('',*,*,#426,.T.);
#449=ORIENTED_EDGE('',*,*,#448,.F.);
#450=EDGE_LOOP('',(#444,#446,#447,#449));
#451=FACE_OUTER_BOUND('',#450,.F.);
#452=ADVANCED_FACE('',(#451),#442,.T.);
#453=CARTESIAN_POINT('',(0.E0,0.E0,2.12E-1));
#454=DIRECTION('',(0.E0,0.E0,1.E0));
#455=DIRECTION('',(-1.E0,0.E0,0.E0));
#456=AXIS2_PLACEMENT_3D('',#453,#454,#455);
#457=CONICAL_SURFACE('',#456,8.128052287954E-1,6.E1);
#458=ORIENTED_EDGE('',*,*,#295,.T.);
#460=ORIENTED_EDGE('',*,*,#459,.T.);
#461=ORIENTED_EDGE('',*,*,#443,.T.);
#463=ORIENTED_EDGE('',*,*,#462,.F.);
#464=EDGE_LOOP('',(#458,#460,#461,#463));
#465=FACE_OUTER_BOUND('',#464,.F.);
#466=ADVANCED_FACE('',(#465),#457,.T.);
#467=CARTESIAN_POINT('',(0.E0,0.E0,2.12E-1));
#468=DIRECTION('',(0.E0,0.E0,1.E0));
#469=DIRECTION('',(-1.E0,0.E0,0.E0));
#470=AXIS2_PLACEMENT_3D('',#467,#468,#469);
#471=CONICAL_SURFACE('',#470,8.128052287954E-1,6.E1);
#472=ORIENTED_EDGE('',*,*,#293,.T.);
#473=ORIENTED_EDGE('',*,*,#462,.T.);
#475=ORIENTED_EDGE('',*,*,#474,.T.);
#476=ORIENTED_EDGE('',*,*,#459,.F.);
#477=EDGE_LOOP('',(#472,#473,#475,#476));
#478=FACE_OUTER_BOUND('',#477,.F.);
#479=ADVANCED_FACE('',(#478),#471,.T.);
#480=CARTESIAN_POINT('',(0.E0,0.E0,0.E0));
#481=DIRECTION('',(0.E0,0.E0,1.E0));
#482=DIRECTION('',(1.E0,0.E0,0.E0));
#483=AXIS2_PLACEMENT_3D('',#480,#481,#482);
#484=CYLINDRICAL_SURFACE('',#483,1.18E0);
#485=ORIENTED_EDGE('',*,*,#474,.F.);
#486=ORIENTED_EDGE('',*,*,#448,.T.);
#487=ORIENTED_EDGE('',*,*,#428,.T.);
#488=ORIENTED_EDGE('',*,*,#445,.F.);
#489=EDGE_LOOP('',(#485,#486,#487,#488));
#490=FACE_OUTER_BOUND('',#489,.F.);
#491=ADVANCED_FACE('',(#490),#484,.T.);
#492=CARTESIAN_POINT('',(0.E0,0.E0,1.05E0));
#493=DIRECTION('',(0.E0,0.E0,-1.E0));
#494=DIRECTION('',(1.E0,0.E0,0.E0));
#495=AXIS2_PLACEMENT_3D('',#492,#493,#494);
#496=CYLINDRICAL_SURFACE('',#495,1.15E0);
#497=ORIENTED_EDGE('',*,*,#433,.T.);
#498=ORIENTED_EDGE('',*,*,#416,.T.);
#499=ORIENTED_EDGE('',*,*,#388,.T.);
#500=ORIENTED_EDGE('',*,*,#413,.F.);
#501=EDGE_LOOP('',(#497,#498,#499,#500));
#502=FACE_OUTER_BOUND('',#501,.F.);
#503=ADVANCED_FACE('',(#502),#496,.F.);
#504=CLOSED_SHELL('',(#305,#320,#333,#349,#364,#377,#392,#405,#420,#437,#452,
#466,#479,#491,#503));
#505=MANIFOLD_SOLID_BREP('',#504);
#506=DIMENSIONAL_EXPONENTS(1.E0,0.E0,0.E0,0.E0,0.E0,0.E0,0.E0);
#507=(LENGTH_UNIT()NAMED_UNIT(*)SI_UNIT(.MILLI.,.METRE.));
#508=LENGTH_MEASURE_WITH_UNIT(LENGTH_MEASURE(2.54E1),#507);
#509=(CONVERSION_BASED_UNIT('INCH',#508)LENGTH_UNIT()NAMED_UNIT(#506));
#510=DIMENSIONAL_EXPONENTS(0.E0,0.E0,0.E0,0.E0,0.E0,0.E0,0.E0);
#511=(NAMED_UNIT(*)PLANE_ANGLE_UNIT()SI_UNIT($,.RADIAN.));
#512=PLANE_ANGLE_MEASURE_WITH_UNIT(PLANE_ANGLE_MEASURE(1.745329251994E-2),#511);
#513=(CONVERSION_BASED_UNIT('DEGREE',#512)NAMED_UNIT(#510)PLANE_ANGLE_UNIT());
#514=(NAMED_UNIT(*)SI_UNIT($,.STERADIAN.)SOLID_ANGLE_UNIT());
#515=UNCERTAINTY_MEASURE_WITH_UNIT(LENGTH_MEASURE(3.483996108411E-4),#509,
'distance_accuracy_value',
'Maximum model space distance between geometric entities at asserted connectivities');
#516=(GEOMETRIC_REPRESENTATION_CONTEXT(3)GLOBAL_UNCERTAINTY_ASSIGNED_CONTEXT((
#515))GLOBAL_UNIT_ASSIGNED_CONTEXT((#509,#513,#514))REPRESENTATION_CONTEXT
('ID1','3'));
#518=APPLICATION_CONTEXT('automotive_design');
#519=APPLICATION_PROTOCOL_DEFINITION('draft international standard',
'automotive_design',1998,#518);
#520=PRODUCT_DEFINITION_CONTEXT('part definition',#518,'design');
#521=PRODUCT_CONTEXT('',#518,'mechanical');
#522=PRODUCT('ILC81071501','ILC81071501','NOT SPECIFIED',(#521));
#523=PRODUCT_DEFINITION_FORMATION_WITH_SPECIFIED_SOURCE('','LAST_VERSION',#522,
.MADE.);
#527=PRODUCT_TYPE('part','',(#522));
#116=CIRCLE('',#115,2.58E-1);
#121=CIRCLE('',#120,2.58E-1);
#126=CIRCLE('',#125,4.456104575908E-1);
#131=CIRCLE('',#130,4.456104575908E-1);
#136=CIRCLE('',#135,2.58E-1);
#145=CIRCLE('',#144,2.58E-1);
#154=CIRCLE('',#153,4.375E-1);
#159=CIRCLE('',#158,4.375E-1);
#164=CIRCLE('',#163,1.12E0);
#177=CIRCLE('',#176,1.12E0);
#182=CIRCLE('',#181,6.E-2);
#187=CIRCLE('',#186,6.E-2);
#192=CIRCLE('',#191,1.15E0);
#197=CIRCLE('',#196,1.15E0);
#202=CIRCLE('',#201,1.18E0);
#207=CIRCLE('',#206,1.18E0);
#212=CIRCLE('',#211,1.15E0);
#217=CIRCLE('',#216,1.15E0);
#230=CIRCLE('',#229,1.18E0);
#239=CIRCLE('',#238,1.18E0);
#293=EDGE_CURVE('',#282,#283,#126,.T.);
#295=EDGE_CURVE('',#283,#282,#131,.T.);
#299=EDGE_CURVE('',#270,#271,#116,.T.);
#301=EDGE_CURVE('',#271,#270,#121,.T.);
#312=EDGE_CURVE('',#266,#270,#149,.T.);
#314=EDGE_CURVE('',#266,#267,#136,.T.);
#316=EDGE_CURVE('',#267,#271,#140,.T.);
#328=EDGE_CURVE('',#266,#267,#145,.T.);
#339=EDGE_CURVE('',#259,#263,#154,.T.);
#341=EDGE_CURVE('',#259,#263,#159,.T.);
#355=EDGE_CURVE('',#258,#259,#168,.T.);
#357=EDGE_CURVE('',#258,#262,#164,.T.);
#359=EDGE_CURVE('',#262,#263,#172,.T.);
#373=EDGE_CURVE('',#258,#262,#177,.T.);
#383=EDGE_CURVE('',#277,#258,#182,.T.);
#386=EDGE_CURVE('',#279,#262,#187,.T.);
#388=EDGE_CURVE('',#277,#279,#192,.T.);
#399=EDGE_CURVE('',#277,#279,#197,.T.);
#411=EDGE_CURVE('',#274,#275,#212,.T.);
#413=EDGE_CURVE('',#275,#279,#251,.T.);
#416=EDGE_CURVE('',#274,#277,#247,.T.);
#426=EDGE_CURVE('',#254,#255,#202,.T.);
#428=EDGE_CURVE('',#255,#254,#207,.T.);
#433=EDGE_CURVE('',#275,#274,#217,.T.);
#443=EDGE_CURVE('',#286,#287,#230,.T.);
#445=EDGE_CURVE('',#286,#254,#221,.T.);
#448=EDGE_CURVE('',#287,#255,#243,.T.);
#459=EDGE_CURVE('',#282,#286,#225,.T.);
#462=EDGE_CURVE('',#283,#287,#234,.T.);
#474=EDGE_CURVE('',#287,#286,#239,.T.);
#517=ADVANCED_BREP_SHAPE_REPRESENTATION('',(#505),#516);
#524=PRODUCT_DEFINITION('part definition','',#523,#520);
#525=PRODUCT_DEFINITION_SHAPE('','SHAPE FOR ILC81071501.',#524);
#526=SHAPE_DEFINITION_REPRESENTATION(#525,#517);
ENDSEC;
END-ISO-10303-21;
