ISO-10303-21;
HEADER;
FILE_DESCRIPTION((''),'2;1');
FILE_NAME('91600602','2004-10-13T',('KR'),(''),
'PRO/ENGINEER BY PARAMETRIC TECHNOLOGY CORPORATION, 2004290',
'PRO/ENGINEER BY PARAMETRIC TECHNOLOGY CORPORATION, 2004290','');
FILE_SCHEMA(('CONFIG_CONTROL_DESIGN'));
ENDSEC;
DATA;
#1=CARTESIAN_POINT('',(0.E0,0.E0,-3.125E-1));
#2=DIRECTION('',(0.E0,0.E0,-1.E0));
#3=DIRECTION('',(-1.E0,0.E0,0.E0));
#4=AXIS2_PLACEMENT_3D('',#1,#2,#3);
#6=CARTESIAN_POINT('',(0.E0,0.E0,-3.125E-1));
#7=DIRECTION('',(0.E0,0.E0,-1.E0));
#8=DIRECTION('',(1.E0,0.E0,0.E0));
#9=AXIS2_PLACEMENT_3D('',#6,#7,#8);
#11=CARTESIAN_POINT('',(-1.125E0,1.25E-1,-3.125E-1));
#12=DIRECTION('',(0.E0,0.E0,-1.E0));
#13=DIRECTION('',(-1.E0,0.E0,0.E0));
#14=AXIS2_PLACEMENT_3D('',#11,#12,#13);
#16=CARTESIAN_POINT('',(-1.125E0,1.25E-1,-3.125E-1));
#17=DIRECTION('',(0.E0,0.E0,-1.E0));
#18=DIRECTION('',(1.E0,0.E0,0.E0));
#19=AXIS2_PLACEMENT_3D('',#16,#17,#18);
#21=DIRECTION('',(-1.E0,0.E0,0.E0));
#22=VECTOR('',#21,3.63E0);
#23=CARTESIAN_POINT('',(0.E0,6.25E-1,-3.125E-1));
#24=LINE('',#23,#22);
#25=DIRECTION('',(0.E0,-1.E0,0.E0));
#26=VECTOR('',#25,8.75E-1);
#27=CARTESIAN_POINT('',(-3.63E0,6.25E-1,-3.125E-1));
#28=LINE('',#27,#26);
#29=DIRECTION('',(1.E0,0.E0,0.E0));
#30=VECTOR('',#29,3.63E0);
#31=CARTESIAN_POINT('',(-3.63E0,-2.5E-1,-3.125E-1));
#32=LINE('',#31,#30);
#33=DIRECTION('',(0.E0,1.E0,0.E0));
#34=VECTOR('',#33,3.75E-1);
#35=CARTESIAN_POINT('',(2.5E-1,0.E0,-3.125E-1));
#36=LINE('',#35,#34);
#37=DIRECTION('',(0.E0,0.E0,-1.E0));
#38=VECTOR('',#37,1.515E-1);
#39=CARTESIAN_POINT('',(-1.2575E-1,0.E0,-1.61E-1));
#40=LINE('',#39,#38);
#41=DIRECTION('',(0.E0,0.E0,-1.E0));
#42=VECTOR('',#41,1.515E-1);
#43=CARTESIAN_POINT('',(-1.2575E-1,0.E0,3.125E-1));
#44=LINE('',#43,#42);
#45=DIRECTION('',(0.E0,1.E0,0.E0));
#46=VECTOR('',#45,5.63E-1);
#47=CARTESIAN_POINT('',(-3.12E-1,-2.5E-1,-1.61E-1));
#48=LINE('',#47,#46);
#49=CARTESIAN_POINT('',(0.E0,0.E0,-1.61E-1));
#50=DIRECTION('',(0.E0,0.E0,-1.E0));
#51=DIRECTION('',(1.E0,0.E0,0.E0));
#52=AXIS2_PLACEMENT_3D('',#49,#50,#51);
#54=CARTESIAN_POINT('',(0.E0,0.E0,-1.61E-1));
#55=DIRECTION('',(0.E0,0.E0,-1.E0));
#56=DIRECTION('',(-1.E0,0.E0,0.E0));
#57=AXIS2_PLACEMENT_3D('',#54,#55,#56);
#59=CARTESIAN_POINT('',(0.E0,0.E0,-1.61E-1));
#60=DIRECTION('',(0.E0,0.E0,-1.E0));
#61=DIRECTION('',(1.E0,0.E0,0.E0));
#62=AXIS2_PLACEMENT_3D('',#59,#60,#61);
#64=DIRECTION('',(1.E0,0.E0,0.E0));
#65=VECTOR('',#64,3.12E-1);
#66=CARTESIAN_POINT('',(-3.12E-1,-2.5E-1,-1.61E-1));
#67=LINE('',#66,#65);
#68=DIRECTION('',(0.E0,0.E0,1.E0));
#69=VECTOR('',#68,6.25E-1);
#70=CARTESIAN_POINT('',(-3.63E0,-2.5E-1,-3.125E-1));
#71=LINE('',#70,#69);
#72=DIRECTION('',(1.E0,0.E0,0.E0));
#73=VECTOR('',#72,3.12E-1);
#74=CARTESIAN_POINT('',(-3.12E-1,-2.5E-1,1.61E-1));
#75=LINE('',#74,#73);
#76=CARTESIAN_POINT('',(-3.12E-1,-2.5E-1,0.E0));
#77=DIRECTION('',(0.E0,-1.E0,0.E0));
#78=DIRECTION('',(0.E0,0.E0,1.E0));
#79=AXIS2_PLACEMENT_3D('',#76,#77,#78);
#81=DIRECTION('',(0.E0,0.E0,-1.E0));
#82=VECTOR('',#81,1.515E-1);
#83=CARTESIAN_POINT('',(0.E0,-2.5E-1,3.125E-1));
#84=LINE('',#83,#82);
#85=CARTESIAN_POINT('',(0.E0,0.E0,3.125E-1));
#86=DIRECTION('',(0.E0,0.E0,1.E0));
#87=DIRECTION('',(0.E0,-1.E0,0.E0));
#88=AXIS2_PLACEMENT_3D('',#85,#86,#87);
#90=DIRECTION('',(0.E0,0.E0,-1.E0));
#91=VECTOR('',#90,1.515E-1);
#92=CARTESIAN_POINT('',(2.5E-1,0.E0,3.125E-1));
#93=LINE('',#92,#91);
#94=DIRECTION('',(0.E0,0.E0,-1.E0));
#95=VECTOR('',#94,1.515E-1);
#96=CARTESIAN_POINT('',(2.5E-1,0.E0,-1.61E-1));
#97=LINE('',#96,#95);
#98=CARTESIAN_POINT('',(0.E0,0.E0,-3.125E-1));
#99=DIRECTION('',(0.E0,0.E0,-1.E0));
#100=DIRECTION('',(1.E0,0.E0,0.E0));
#101=AXIS2_PLACEMENT_3D('',#98,#99,#100);
#103=DIRECTION('',(0.E0,0.E0,-1.E0));
#104=VECTOR('',#103,1.515E-1);
#105=CARTESIAN_POINT('',(0.E0,-2.5E-1,-1.61E-1));
#106=LINE('',#105,#104);
#107=CARTESIAN_POINT('',(0.E0,0.E0,1.61E-1));
#108=DIRECTION('',(0.E0,0.E0,-1.E0));
#109=DIRECTION('',(1.E0,0.E0,0.E0));
#110=AXIS2_PLACEMENT_3D('',#107,#108,#109);
#112=CARTESIAN_POINT('',(0.E0,0.E0,1.61E-1));
#113=DIRECTION('',(0.E0,0.E0,-1.E0));
#114=DIRECTION('',(-1.E0,0.E0,0.E0));
#115=AXIS2_PLACEMENT_3D('',#112,#113,#114);
#117=CARTESIAN_POINT('',(0.E0,0.E0,1.61E-1));
#118=DIRECTION('',(0.E0,0.E0,-1.E0));
#119=DIRECTION('',(1.E0,0.E0,0.E0));
#120=AXIS2_PLACEMENT_3D('',#117,#118,#119);
#122=DIRECTION('',(0.E0,1.E0,0.E0));
#123=VECTOR('',#122,3.13E-1);
#124=CARTESIAN_POINT('',(2.5E-1,0.E0,-1.61E-1));
#125=LINE('',#124,#123);
#126=DIRECTION('',(0.E0,0.E0,1.E0));
#127=VECTOR('',#126,3.22E-1);
#128=CARTESIAN_POINT('',(2.5E-1,3.13E-1,-1.61E-1));
#129=LINE('',#128,#127);
#130=DIRECTION('',(0.E0,1.E0,0.E0));
#131=VECTOR('',#130,3.13E-1);
#132=CARTESIAN_POINT('',(2.5E-1,0.E0,1.61E-1));
#133=LINE('',#132,#131);
#134=DIRECTION('',(0.E0,0.E0,-1.E0));
#135=VECTOR('',#134,6.25E-1);
#136=CARTESIAN_POINT('',(0.E0,6.25E-1,3.125E-1));
#137=LINE('',#136,#135);
#138=CARTESIAN_POINT('',(0.E0,3.75E-1,-3.125E-1));
#139=DIRECTION('',(0.E0,0.E0,-1.E0));
#140=DIRECTION('',(0.E0,1.E0,0.E0));
#141=AXIS2_PLACEMENT_3D('',#138,#139,#140);
#143=DIRECTION('',(0.E0,0.E0,-1.E0));
#144=VECTOR('',#143,6.25E-1);
#145=CARTESIAN_POINT('',(2.5E-1,3.75E-1,3.125E-1));
#146=LINE('',#145,#144);
#147=CARTESIAN_POINT('',(0.E0,3.75E-1,3.125E-1));
#148=DIRECTION('',(0.E0,0.E0,1.E0));
#149=DIRECTION('',(1.E0,0.E0,0.E0));
#150=AXIS2_PLACEMENT_3D('',#147,#148,#149);
#152=CARTESIAN_POINT('',(0.E0,0.E0,3.125E-1));
#153=DIRECTION('',(0.E0,0.E0,-1.E0));
#154=DIRECTION('',(-1.E0,0.E0,0.E0));
#155=AXIS2_PLACEMENT_3D('',#152,#153,#154);
#157=CARTESIAN_POINT('',(0.E0,0.E0,3.125E-1));
#158=DIRECTION('',(0.E0,0.E0,-1.E0));
#159=DIRECTION('',(1.E0,0.E0,0.E0));
#160=AXIS2_PLACEMENT_3D('',#157,#158,#159);
#162=CARTESIAN_POINT('',(-1.125E0,1.25E-1,3.125E-1));
#163=DIRECTION('',(0.E0,0.E0,-1.E0));
#164=DIRECTION('',(-1.E0,0.E0,0.E0));
#165=AXIS2_PLACEMENT_3D('',#162,#163,#164);
#167=CARTESIAN_POINT('',(-1.125E0,1.25E-1,3.125E-1));
#168=DIRECTION('',(0.E0,0.E0,-1.E0));
#169=DIRECTION('',(1.E0,0.E0,0.E0));
#170=AXIS2_PLACEMENT_3D('',#167,#168,#169);
#172=DIRECTION('',(0.E0,1.E0,0.E0));
#173=VECTOR('',#172,3.75E-1);
#174=CARTESIAN_POINT('',(2.5E-1,0.E0,3.125E-1));
#175=LINE('',#174,#173);
#176=DIRECTION('',(1.E0,0.E0,0.E0));
#177=VECTOR('',#176,3.63E0);
#178=CARTESIAN_POINT('',(-3.63E0,-2.5E-1,3.125E-1));
#179=LINE('',#178,#177);
#180=DIRECTION('',(0.E0,-1.E0,0.E0));
#181=VECTOR('',#180,8.75E-1);
#182=CARTESIAN_POINT('',(-3.63E0,6.25E-1,3.125E-1));
#183=LINE('',#182,#181);
#184=DIRECTION('',(-1.E0,0.E0,0.E0));
#185=VECTOR('',#184,3.63E0);
#186=CARTESIAN_POINT('',(0.E0,6.25E-1,3.125E-1));
#187=LINE('',#186,#185);
#188=DIRECTION('',(0.E0,0.E0,-1.E0));
#189=VECTOR('',#188,1.515E-1);
#190=CARTESIAN_POINT('',(1.2575E-1,0.E0,-1.61E-1));
#191=LINE('',#190,#189);
#192=DIRECTION('',(0.E0,0.E0,-1.E0));
#193=VECTOR('',#192,1.515E-1);
#194=CARTESIAN_POINT('',(1.2575E-1,0.E0,3.125E-1));
#195=LINE('',#194,#193);
#196=DIRECTION('',(0.E0,0.E0,-1.E0));
#197=VECTOR('',#196,6.25E-1);
#198=CARTESIAN_POINT('',(-1.31275E0,1.25E-1,3.125E-1));
#199=LINE('',#198,#197);
#200=DIRECTION('',(0.E0,0.E0,-1.E0));
#201=VECTOR('',#200,6.25E-1);
#202=CARTESIAN_POINT('',(-9.3725E-1,1.25E-1,3.125E-1));
#203=LINE('',#202,#201);
#204=DIRECTION('',(0.E0,0.E0,1.E0));
#205=VECTOR('',#204,6.25E-1);
#206=CARTESIAN_POINT('',(-3.63E0,6.25E-1,-3.125E-1));
#207=LINE('',#206,#205);
#208=DIRECTION('',(1.E0,0.E0,0.E0));
#209=VECTOR('',#208,5.62E-1);
#210=CARTESIAN_POINT('',(-3.12E-1,3.13E-1,-1.61E-1));
#211=LINE('',#210,#209);
#212=CARTESIAN_POINT('',(-3.12E-1,3.13E-1,0.E0));
#213=DIRECTION('',(0.E0,-1.E0,0.E0));
#214=DIRECTION('',(0.E0,0.E0,1.E0));
#215=AXIS2_PLACEMENT_3D('',#212,#213,#214);
#217=DIRECTION('',(-1.E0,0.E0,0.E0));
#218=VECTOR('',#217,5.62E-1);
#219=CARTESIAN_POINT('',(2.5E-1,3.13E-1,1.61E-1));
#220=LINE('',#219,#218);
#221=DIRECTION('',(0.E0,1.E0,0.E0));
#222=VECTOR('',#221,5.63E-1);
#223=CARTESIAN_POINT('',(-3.12E-1,-2.5E-1,1.61E-1));
#224=LINE('',#223,#222);
#225=CARTESIAN_POINT('',(-3.63E0,6.25E-1,-3.125E-1));
#226=CARTESIAN_POINT('',(-3.63E0,-2.5E-1,-3.125E-1));
#227=VERTEX_POINT('',#225);
#228=VERTEX_POINT('',#226);
#229=CARTESIAN_POINT('',(-3.63E0,6.25E-1,3.125E-1));
#230=CARTESIAN_POINT('',(-3.63E0,-2.5E-1,3.125E-1));
#231=VERTEX_POINT('',#229);
#232=VERTEX_POINT('',#230);
#233=CARTESIAN_POINT('',(-1.2575E-1,0.E0,-3.125E-1));
#234=CARTESIAN_POINT('',(1.2575E-1,0.E0,-3.125E-1));
#235=VERTEX_POINT('',#233);
#236=VERTEX_POINT('',#234);
#237=CARTESIAN_POINT('',(-1.2575E-1,0.E0,3.125E-1));
#238=CARTESIAN_POINT('',(1.2575E-1,0.E0,3.125E-1));
#239=VERTEX_POINT('',#237);
#240=VERTEX_POINT('',#238);
#241=CARTESIAN_POINT('',(-1.31275E0,1.25E-1,-3.125E-1));
#242=CARTESIAN_POINT('',(-9.3725E-1,1.25E-1,-3.125E-1));
#243=VERTEX_POINT('',#241);
#244=VERTEX_POINT('',#242);
#245=CARTESIAN_POINT('',(-1.31275E0,1.25E-1,3.125E-1));
#246=CARTESIAN_POINT('',(-9.3725E-1,1.25E-1,3.125E-1));
#247=VERTEX_POINT('',#245);
#248=VERTEX_POINT('',#246);
#249=CARTESIAN_POINT('',(-3.12E-1,-2.5E-1,-1.61E-1));
#250=CARTESIAN_POINT('',(0.E0,-2.5E-1,-1.61E-1));
#251=VERTEX_POINT('',#249);
#252=VERTEX_POINT('',#250);
#253=CARTESIAN_POINT('',(-3.12E-1,-2.5E-1,1.61E-1));
#254=CARTESIAN_POINT('',(0.E0,-2.5E-1,1.61E-1));
#255=VERTEX_POINT('',#253);
#256=VERTEX_POINT('',#254);
#257=CARTESIAN_POINT('',(-1.2575E-1,0.E0,-1.61E-1));
#258=CARTESIAN_POINT('',(1.2575E-1,0.E0,-1.61E-1));
#259=VERTEX_POINT('',#257);
#260=VERTEX_POINT('',#258);
#261=CARTESIAN_POINT('',(-1.2575E-1,0.E0,1.61E-1));
#262=CARTESIAN_POINT('',(1.2575E-1,0.E0,1.61E-1));
#263=VERTEX_POINT('',#261);
#264=VERTEX_POINT('',#262);
#265=CARTESIAN_POINT('',(-3.12E-1,3.13E-1,-1.61E-1));
#266=CARTESIAN_POINT('',(2.5E-1,3.13E-1,-1.61E-1));
#267=VERTEX_POINT('',#265);
#268=VERTEX_POINT('',#266);
#269=CARTESIAN_POINT('',(2.5E-1,3.13E-1,1.61E-1));
#270=CARTESIAN_POINT('',(-3.12E-1,3.13E-1,1.61E-1));
#271=VERTEX_POINT('',#269);
#272=VERTEX_POINT('',#270);
#273=CARTESIAN_POINT('',(0.E0,-2.5E-1,-3.125E-1));
#274=VERTEX_POINT('',#273);
#275=CARTESIAN_POINT('',(0.E0,-2.5E-1,3.125E-1));
#276=VERTEX_POINT('',#275);
#277=CARTESIAN_POINT('',(2.5E-1,0.E0,-3.125E-1));
#278=VERTEX_POINT('',#277);
#279=CARTESIAN_POINT('',(2.5E-1,0.E0,3.125E-1));
#280=VERTEX_POINT('',#279);
#281=CARTESIAN_POINT('',(2.5E-1,0.E0,1.61E-1));
#282=VERTEX_POINT('',#281);
#283=CARTESIAN_POINT('',(2.5E-1,0.E0,-1.61E-1));
#284=VERTEX_POINT('',#283);
#285=CARTESIAN_POINT('',(0.E0,6.25E-1,3.125E-1));
#286=CARTESIAN_POINT('',(0.E0,6.25E-1,-3.125E-1));
#287=VERTEX_POINT('',#285);
#288=VERTEX_POINT('',#286);
#289=CARTESIAN_POINT('',(2.5E-1,3.75E-1,-3.125E-1));
#290=VERTEX_POINT('',#289);
#291=CARTESIAN_POINT('',(2.5E-1,3.75E-1,3.125E-1));
#292=VERTEX_POINT('',#291);
#293=CARTESIAN_POINT('',(0.E0,0.E0,-3.125E-1));
#294=DIRECTION('',(0.E0,0.E0,1.E0));
#295=DIRECTION('',(1.E0,0.E0,0.E0));
#296=AXIS2_PLACEMENT_3D('',#293,#294,#295);
#297=PLANE('',#296);
#299=ORIENTED_EDGE('',*,*,#298,.F.);
#301=ORIENTED_EDGE('',*,*,#300,.T.);
#303=ORIENTED_EDGE('',*,*,#302,.T.);
#305=ORIENTED_EDGE('',*,*,#304,.T.);
#307=ORIENTED_EDGE('',*,*,#306,.F.);
#309=ORIENTED_EDGE('',*,*,#308,.T.);
#310=EDGE_LOOP('',(#299,#301,#303,#305,#307,#309));
#311=FACE_OUTER_BOUND('',#310,.F.);
#313=ORIENTED_EDGE('',*,*,#312,.T.);
#315=ORIENTED_EDGE('',*,*,#314,.T.);
#316=EDGE_LOOP('',(#313,#315));
#317=FACE_BOUND('',#316,.F.);
#319=ORIENTED_EDGE('',*,*,#318,.T.);
#321=ORIENTED_EDGE('',*,*,#320,.T.);
#322=EDGE_LOOP('',(#319,#321));
#323=FACE_BOUND('',#322,.F.);
#324=ADVANCED_FACE('',(#311,#317,#323),#297,.F.);
#325=CARTESIAN_POINT('',(0.E0,0.E0,3.75E-1));
#326=DIRECTION('',(0.E0,0.E0,-1.E0));
#327=DIRECTION('',(-1.E0,0.E0,0.E0));
#328=AXIS2_PLACEMENT_3D('',#325,#326,#327);
#329=CYLINDRICAL_SURFACE('',#328,1.2575E-1);
#331=ORIENTED_EDGE('',*,*,#330,.T.);
#333=ORIENTED_EDGE('',*,*,#332,.T.);
#334=ORIENTED_EDGE('',*,*,#312,.F.);
#336=ORIENTED_EDGE('',*,*,#335,.F.);
#337=EDGE_LOOP('',(#331,#333,#334,#336));
#338=FACE_OUTER_BOUND('',#337,.F.);
#339=ADVANCED_FACE('',(#338),#329,.F.);
#340=CARTESIAN_POINT('',(0.E0,0.E0,3.75E-1));
#341=DIRECTION('',(0.E0,0.E0,-1.E0));
#342=DIRECTION('',(-1.E0,0.E0,0.E0));
#343=AXIS2_PLACEMENT_3D('',#340,#341,#342);
#344=CYLINDRICAL_SURFACE('',#343,1.2575E-1);
#346=ORIENTED_EDGE('',*,*,#345,.F.);
#348=ORIENTED_EDGE('',*,*,#347,.F.);
#350=ORIENTED_EDGE('',*,*,#349,.T.);
#352=ORIENTED_EDGE('',*,*,#351,.T.);
#353=EDGE_LOOP('',(#346,#348,#350,#352));
#354=FACE_OUTER_BOUND('',#353,.F.);
#355=ADVANCED_FACE('',(#354),#344,.F.);
#356=CARTESIAN_POINT('',(-3.12E-1,-2.5E-1,-1.61E-1));
#357=DIRECTION('',(0.E0,0.E0,-1.E0));
#358=DIRECTION('',(1.E0,0.E0,0.E0));
#359=AXIS2_PLACEMENT_3D('',#356,#357,#358);
#360=PLANE('',#359);
#362=ORIENTED_EDGE('',*,*,#361,.F.);
#364=ORIENTED_EDGE('',*,*,#363,.T.);
#366=ORIENTED_EDGE('',*,*,#365,.T.);
#368=ORIENTED_EDGE('',*,*,#367,.F.);
#370=ORIENTED_EDGE('',*,*,#369,.T.);
#371=EDGE_LOOP('',(#362,#364,#366,#368,#370));
#372=FACE_OUTER_BOUND('',#371,.F.);
#373=ORIENTED_EDGE('',*,*,#330,.F.);
#375=ORIENTED_EDGE('',*,*,#374,.F.);
#376=EDGE_LOOP('',(#373,#375));
#377=FACE_BOUND('',#376,.F.);
#378=ADVANCED_FACE('',(#372,#377),#360,.F.);
#379=CARTESIAN_POINT('',(-3.63E0,-2.5E-1,-3.125E-1));
#380=DIRECTION('',(0.E0,-1.E0,0.E0));
#381=DIRECTION('',(1.E0,0.E0,0.E0));
#382=AXIS2_PLACEMENT_3D('',#379,#380,#381);
#383=PLANE('',#382);
#384=ORIENTED_EDGE('',*,*,#361,.T.);
#386=ORIENTED_EDGE('',*,*,#385,.T.);
#387=ORIENTED_EDGE('',*,*,#304,.F.);
#389=ORIENTED_EDGE('',*,*,#388,.T.);
#391=ORIENTED_EDGE('',*,*,#390,.T.);
#393=ORIENTED_EDGE('',*,*,#392,.T.);
#395=ORIENTED_EDGE('',*,*,#394,.F.);
#397=ORIENTED_EDGE('',*,*,#396,.T.);
#398=EDGE_LOOP('',(#384,#386,#387,#389,#391,#393,#395,#397));
#399=FACE_OUTER_BOUND('',#398,.F.);
#400=ADVANCED_FACE('',(#399),#383,.T.);
#401=CARTESIAN_POINT('',(0.E0,0.E0,3.188000163984E-1));
#402=DIRECTION('',(0.E0,0.E0,-1.E0));
#403=DIRECTION('',(1.E0,0.E0,0.E0));
#404=AXIS2_PLACEMENT_3D('',#401,#402,#403);
#405=CYLINDRICAL_SURFACE('',#404,2.5E-1);
#407=ORIENTED_EDGE('',*,*,#406,.T.);
#408=ORIENTED_EDGE('',*,*,#392,.F.);
#410=ORIENTED_EDGE('',*,*,#409,.T.);
#412=ORIENTED_EDGE('',*,*,#411,.T.);
#413=EDGE_LOOP('',(#407,#408,#410,#412));
#414=FACE_OUTER_BOUND('',#413,.F.);
#415=ADVANCED_FACE('',(#414),#405,.T.);
#416=CARTESIAN_POINT('',(0.E0,0.E0,3.188000163984E-1));
#417=DIRECTION('',(0.E0,0.E0,-1.E0));
#418=DIRECTION('',(1.E0,0.E0,0.E0));
#419=AXIS2_PLACEMENT_3D('',#416,#417,#418);
#420=CYLINDRICAL_SURFACE('',#419,2.5E-1);
#421=ORIENTED_EDGE('',*,*,#369,.F.);
#423=ORIENTED_EDGE('',*,*,#422,.T.);
#424=ORIENTED_EDGE('',*,*,#306,.T.);
#425=ORIENTED_EDGE('',*,*,#385,.F.);
#426=EDGE_LOOP('',(#421,#423,#424,#425));
#427=FACE_OUTER_BOUND('',#426,.F.);
#428=ADVANCED_FACE('',(#427),#420,.T.);
#429=CARTESIAN_POINT('',(2.5E-1,-2.5E-1,1.61E-1));
#430=DIRECTION('',(0.E0,0.E0,1.E0));
#431=DIRECTION('',(-1.E0,0.E0,0.E0));
#432=AXIS2_PLACEMENT_3D('',#429,#430,#431);
#433=PLANE('',#432);
#434=ORIENTED_EDGE('',*,*,#394,.T.);
#435=ORIENTED_EDGE('',*,*,#406,.F.);
#437=ORIENTED_EDGE('',*,*,#436,.T.);
#439=ORIENTED_EDGE('',*,*,#438,.T.);
#441=ORIENTED_EDGE('',*,*,#440,.F.);
#442=EDGE_LOOP('',(#434,#435,#437,#439,#441));
#443=FACE_OUTER_BOUND('',#442,.F.);
#444=ORIENTED_EDGE('',*,*,#345,.T.);
#446=ORIENTED_EDGE('',*,*,#445,.T.);
#447=EDGE_LOOP('',(#444,#446));
#448=FACE_BOUND('',#447,.F.);
#449=ADVANCED_FACE('',(#443,#448),#433,.F.);
#450=CARTESIAN_POINT('',(2.5E-1,-2.5E-1,-3.125E-1));
#451=DIRECTION('',(1.E0,0.E0,0.E0));
#452=DIRECTION('',(0.E0,1.E0,0.E0));
#453=AXIS2_PLACEMENT_3D('',#450,#451,#452);
#454=PLANE('',#453);
#456=ORIENTED_EDGE('',*,*,#455,.T.);
#457=ORIENTED_EDGE('',*,*,#308,.F.);
#458=ORIENTED_EDGE('',*,*,#422,.F.);
#459=ORIENTED_EDGE('',*,*,#367,.T.);
#461=ORIENTED_EDGE('',*,*,#460,.T.);
#462=ORIENTED_EDGE('',*,*,#436,.F.);
#463=ORIENTED_EDGE('',*,*,#411,.F.);
#465=ORIENTED_EDGE('',*,*,#464,.T.);
#466=EDGE_LOOP('',(#456,#457,#458,#459,#461,#462,#463,#465));
#467=FACE_OUTER_BOUND('',#466,.F.);
#468=ADVANCED_FACE('',(#467),#454,.T.);
#469=CARTESIAN_POINT('',(0.E0,3.75E-1,3.188000163984E-1));
#470=DIRECTION('',(0.E0,0.E0,-1.E0));
#471=DIRECTION('',(0.E0,1.E0,0.E0));
#472=AXIS2_PLACEMENT_3D('',#469,#470,#471);
#473=CYLINDRICAL_SURFACE('',#472,2.5E-1);
#475=ORIENTED_EDGE('',*,*,#474,.T.);
#476=ORIENTED_EDGE('',*,*,#298,.T.);
#477=ORIENTED_EDGE('',*,*,#455,.F.);
#479=ORIENTED_EDGE('',*,*,#478,.T.);
#480=EDGE_LOOP('',(#475,#476,#477,#479));
#481=FACE_OUTER_BOUND('',#480,.F.);
#482=ADVANCED_FACE('',(#481),#473,.T.);
#483=CARTESIAN_POINT('',(2.5E-1,6.25E-1,-3.125E-1));
#484=DIRECTION('',(0.E0,1.E0,0.E0));
#485=DIRECTION('',(-1.E0,0.E0,0.E0));
#486=AXIS2_PLACEMENT_3D('',#483,#484,#485);
#487=PLANE('',#486);
#488=ORIENTED_EDGE('',*,*,#474,.F.);
#490=ORIENTED_EDGE('',*,*,#489,.T.);
#492=ORIENTED_EDGE('',*,*,#491,.F.);
#493=ORIENTED_EDGE('',*,*,#300,.F.);
#494=EDGE_LOOP('',(#488,#490,#492,#493));
#495=FACE_OUTER_BOUND('',#494,.F.);
#496=ADVANCED_FACE('',(#495),#487,.T.);
#497=CARTESIAN_POINT('',(0.E0,0.E0,3.125E-1));
#498=DIRECTION('',(0.E0,0.E0,1.E0));
#499=DIRECTION('',(1.E0,0.E0,0.E0));
#500=AXIS2_PLACEMENT_3D('',#497,#498,#499);
#501=PLANE('',#500);
#502=ORIENTED_EDGE('',*,*,#478,.F.);
#503=ORIENTED_EDGE('',*,*,#464,.F.);
#504=ORIENTED_EDGE('',*,*,#409,.F.);
#505=ORIENTED_EDGE('',*,*,#390,.F.);
#507=ORIENTED_EDGE('',*,*,#506,.F.);
#508=ORIENTED_EDGE('',*,*,#489,.F.);
#509=EDGE_LOOP('',(#502,#503,#504,#505,#507,#508));
#510=FACE_OUTER_BOUND('',#509,.F.);
#511=ORIENTED_EDGE('',*,*,#349,.F.);
#513=ORIENTED_EDGE('',*,*,#512,.F.);
#514=EDGE_LOOP('',(#511,#513));
#515=FACE_BOUND('',#514,.F.);
#517=ORIENTED_EDGE('',*,*,#516,.F.);
#519=ORIENTED_EDGE('',*,*,#518,.F.);
#520=EDGE_LOOP('',(#517,#519));
#521=FACE_BOUND('',#520,.F.);
#522=ADVANCED_FACE('',(#510,#515,#521),#501,.T.);
#523=CARTESIAN_POINT('',(0.E0,0.E0,3.75E-1));
#524=DIRECTION('',(0.E0,0.E0,-1.E0));
#525=DIRECTION('',(-1.E0,0.E0,0.E0));
#526=AXIS2_PLACEMENT_3D('',#523,#524,#525);
#527=CYLINDRICAL_SURFACE('',#526,1.2575E-1);
#528=ORIENTED_EDGE('',*,*,#374,.T.);
#529=ORIENTED_EDGE('',*,*,#335,.T.);
#530=ORIENTED_EDGE('',*,*,#314,.F.);
#531=ORIENTED_EDGE('',*,*,#332,.F.);
#532=EDGE_LOOP('',(#528,#529,#530,#531));
#533=FACE_OUTER_BOUND('',#532,.F.);
#534=ADVANCED_FACE('',(#533),#527,.F.);
#535=CARTESIAN_POINT('',(0.E0,0.E0,3.75E-1));
#536=DIRECTION('',(0.E0,0.E0,-1.E0));
#537=DIRECTION('',(-1.E0,0.E0,0.E0));
#538=AXIS2_PLACEMENT_3D('',#535,#536,#537);
#539=CYLINDRICAL_SURFACE('',#538,1.2575E-1);
#540=ORIENTED_EDGE('',*,*,#445,.F.);
#541=ORIENTED_EDGE('',*,*,#351,.F.);
#542=ORIENTED_EDGE('',*,*,#512,.T.);
#543=ORIENTED_EDGE('',*,*,#347,.T.);
#544=EDGE_LOOP('',(#540,#541,#542,#543));
#545=FACE_OUTER_BOUND('',#544,.F.);
#546=ADVANCED_FACE('',(#545),#539,.F.);
#547=CARTESIAN_POINT('',(-1.125E0,1.25E-1,3.75E-1));
#548=DIRECTION('',(0.E0,0.E0,-1.E0));
#549=DIRECTION('',(-1.E0,0.E0,0.E0));
#550=AXIS2_PLACEMENT_3D('',#547,#548,#549);
#551=CYLINDRICAL_SURFACE('',#550,1.8775E-1);
#552=ORIENTED_EDGE('',*,*,#318,.F.);
#554=ORIENTED_EDGE('',*,*,#553,.F.);
#555=ORIENTED_EDGE('',*,*,#516,.T.);
#557=ORIENTED_EDGE('',*,*,#556,.T.);
#558=EDGE_LOOP('',(#552,#554,#555,#557));
#559=FACE_OUTER_BOUND('',#558,.F.);
#560=ADVANCED_FACE('',(#559),#551,.F.);
#561=CARTESIAN_POINT('',(-1.125E0,1.25E-1,3.75E-1));
#562=DIRECTION('',(0.E0,0.E0,-1.E0));
#563=DIRECTION('',(-1.E0,0.E0,0.E0));
#564=AXIS2_PLACEMENT_3D('',#561,#562,#563);
#565=CYLINDRICAL_SURFACE('',#564,1.8775E-1);
#566=ORIENTED_EDGE('',*,*,#320,.F.);
#567=ORIENTED_EDGE('',*,*,#556,.F.);
#568=ORIENTED_EDGE('',*,*,#518,.T.);
#569=ORIENTED_EDGE('',*,*,#553,.T.);
#570=EDGE_LOOP('',(#566,#567,#568,#569));
#571=FACE_OUTER_BOUND('',#570,.F.);
#572=ADVANCED_FACE('',(#571),#565,.F.);
#573=CARTESIAN_POINT('',(-3.63E0,6.25E-1,-3.125E-1));
#574=DIRECTION('',(-1.E0,0.E0,0.E0));
#575=DIRECTION('',(0.E0,-1.E0,0.E0));
#576=AXIS2_PLACEMENT_3D('',#573,#574,#575);
#577=PLANE('',#576);
#578=ORIENTED_EDGE('',*,*,#302,.F.);
#579=ORIENTED_EDGE('',*,*,#491,.T.);
#580=ORIENTED_EDGE('',*,*,#506,.T.);
#581=ORIENTED_EDGE('',*,*,#388,.F.);
#582=EDGE_LOOP('',(#578,#579,#580,#581));
#583=FACE_OUTER_BOUND('',#582,.F.);
#584=ADVANCED_FACE('',(#583),#577,.T.);
#585=CARTESIAN_POINT('',(0.E0,3.13E-1,0.E0));
#586=DIRECTION('',(0.E0,-1.E0,0.E0));
#587=DIRECTION('',(1.E0,0.E0,0.E0));
#588=AXIS2_PLACEMENT_3D('',#585,#586,#587);
#589=PLANE('',#588);
#590=ORIENTED_EDGE('',*,*,#365,.F.);
#592=ORIENTED_EDGE('',*,*,#591,.F.);
#593=ORIENTED_EDGE('',*,*,#438,.F.);
#594=ORIENTED_EDGE('',*,*,#460,.F.);
#595=EDGE_LOOP('',(#590,#592,#593,#594));
#596=FACE_OUTER_BOUND('',#595,.F.);
#597=ADVANCED_FACE('',(#596),#589,.T.);
#598=CARTESIAN_POINT('',(-3.12E-1,-2.5E-1,0.E0));
#599=DIRECTION('',(0.E0,-1.E0,0.E0));
#600=DIRECTION('',(1.E0,0.E0,0.E0));
#601=AXIS2_PLACEMENT_3D('',#598,#599,#600);
#602=CYLINDRICAL_SURFACE('',#601,1.61E-1);
#603=ORIENTED_EDGE('',*,*,#396,.F.);
#604=ORIENTED_EDGE('',*,*,#440,.T.);
#605=ORIENTED_EDGE('',*,*,#591,.T.);
#606=ORIENTED_EDGE('',*,*,#363,.F.);
#607=EDGE_LOOP('',(#603,#604,#605,#606));
#608=FACE_OUTER_BOUND('',#607,.F.);
#609=ADVANCED_FACE('',(#608),#602,.F.);
#610=CLOSED_SHELL('',(#324,#339,#355,#378,#400,#415,#428,#449,#468,#482,#496,
#522,#534,#546,#560,#572,#584,#597,#609));
#611=MANIFOLD_SOLID_BREP('',#610);
#612=DIMENSIONAL_EXPONENTS(1.E0,0.E0,0.E0,0.E0,0.E0,0.E0,0.E0);
#613=(LENGTH_UNIT()NAMED_UNIT(*)SI_UNIT(.MILLI.,.METRE.));
#614=LENGTH_MEASURE_WITH_UNIT(LENGTH_MEASURE(2.54E1),#613);
#615=(CONVERSION_BASED_UNIT('INCH',#614)LENGTH_UNIT()NAMED_UNIT(#612));
#616=DIMENSIONAL_EXPONENTS(0.E0,0.E0,0.E0,0.E0,0.E0,0.E0,0.E0);
#617=(NAMED_UNIT(*)PLANE_ANGLE_UNIT()SI_UNIT($,.RADIAN.));
#618=PLANE_ANGLE_MEASURE_WITH_UNIT(PLANE_ANGLE_MEASURE(1.745329251994E-2),#617);
#619=(CONVERSION_BASED_UNIT('DEGREE',#618)NAMED_UNIT(#616)PLANE_ANGLE_UNIT());
#620=(NAMED_UNIT(*)SI_UNIT($,.STERADIAN.)SOLID_ANGLE_UNIT());
#621=UNCERTAINTY_MEASURE_WITH_UNIT(LENGTH_MEASURE(4.026084099213E-4),#615,
'closure',
'Maximum model space distance between geometric entities at asserted connectivities');
#622=(GEOMETRIC_REPRESENTATION_CONTEXT(3)GLOBAL_UNCERTAINTY_ASSIGNED_CONTEXT((
#621))GLOBAL_UNIT_ASSIGNED_CONTEXT((#615,#619,#620))REPRESENTATION_CONTEXT
('ID1','3'));
#624=APPLICATION_CONTEXT(
'CONFIGURATION CONTROLLED 3D DESIGNS OF MECHANICAL PARTS AND ASSEMBLIES');
#625=APPLICATION_PROTOCOL_DEFINITION('international standard',
'config_control_design',1994,#624);
#626=DESIGN_CONTEXT('',#624,'design');
#627=MECHANICAL_CONTEXT('',#624,'mechanical');
#628=PRODUCT('91600602','91600602','NOT SPECIFIED',(#627));
#629=PRODUCT_DEFINITION_FORMATION_WITH_SPECIFIED_SOURCE('','LAST_VERSION',#628,
.MADE.);
#633=PRODUCT_CATEGORY('part','');
#634=PRODUCT_RELATED_PRODUCT_CATEGORY('detail','',(#628));
#635=PRODUCT_CATEGORY_RELATIONSHIP('','',#633,#634);
#636=SECURITY_CLASSIFICATION_LEVEL('unclassified');
#637=SECURITY_CLASSIFICATION('','',#636);
#638=CC_DESIGN_SECURITY_CLASSIFICATION(#637,(#629));
#639=APPROVAL_STATUS('approved');
#640=APPROVAL(#639,'');
#641=CC_DESIGN_APPROVAL(#640,(#637,#629,#630));
#642=CALENDAR_DATE(104,13,10);
#643=COORDINATED_UNIVERSAL_TIME_OFFSET(4,0,.BEHIND.);
#644=LOCAL_TIME(16,26,5.8E1,#643);
#645=DATE_AND_TIME(#642,#644);
#646=APPROVAL_DATE_TIME(#645,#640);
#647=DATE_TIME_ROLE('creation_date');
#648=CC_DESIGN_DATE_AND_TIME_ASSIGNMENT(#645,#647,(#630));
#649=DATE_TIME_ROLE('classification_date');
#650=CC_DESIGN_DATE_AND_TIME_ASSIGNMENT(#645,#649,(#637));
#651=PERSON('UNSPECIFIED','UNSPECIFIED',$,$,$,$);
#652=ORGANIZATION('UNSPECIFIED','UNSPECIFIED','UNSPECIFIED');
#653=PERSON_AND_ORGANIZATION(#651,#652);
#654=APPROVAL_ROLE('approver');
#655=APPROVAL_PERSON_ORGANIZATION(#653,#640,#654);
#656=PERSON_AND_ORGANIZATION_ROLE('creator');
#657=CC_DESIGN_PERSON_AND_ORGANIZATION_ASSIGNMENT(#653,#656,(#629,#630));
#658=PERSON_AND_ORGANIZATION_ROLE('design_supplier');
#659=CC_DESIGN_PERSON_AND_ORGANIZATION_ASSIGNMENT(#653,#658,(#629));
#660=PERSON_AND_ORGANIZATION_ROLE('classification_officer');
#661=CC_DESIGN_PERSON_AND_ORGANIZATION_ASSIGNMENT(#653,#660,(#637));
#662=PERSON_AND_ORGANIZATION_ROLE('design_owner');
#663=CC_DESIGN_PERSON_AND_ORGANIZATION_ASSIGNMENT(#653,#662,(#628));
#5=CIRCLE('',#4,1.2575E-1);
#10=CIRCLE('',#9,1.2575E-1);
#15=CIRCLE('',#14,1.8775E-1);
#20=CIRCLE('',#19,1.8775E-1);
#53=CIRCLE('',#52,2.5E-1);
#58=CIRCLE('',#57,1.2575E-1);
#63=CIRCLE('',#62,1.2575E-1);
#80=CIRCLE('',#79,1.61E-1);
#89=CIRCLE('',#88,2.5E-1);
#102=CIRCLE('',#101,2.5E-1);
#111=CIRCLE('',#110,2.5E-1);
#116=CIRCLE('',#115,1.2575E-1);
#121=CIRCLE('',#120,1.2575E-1);
#142=CIRCLE('',#141,2.5E-1);
#151=CIRCLE('',#150,2.5E-1);
#156=CIRCLE('',#155,1.2575E-1);
#161=CIRCLE('',#160,1.2575E-1);
#166=CIRCLE('',#165,1.8775E-1);
#171=CIRCLE('',#170,1.8775E-1);
#216=CIRCLE('',#215,1.61E-1);
#298=EDGE_CURVE('',#288,#290,#142,.T.);
#300=EDGE_CURVE('',#288,#227,#24,.T.);
#302=EDGE_CURVE('',#227,#228,#28,.T.);
#304=EDGE_CURVE('',#228,#274,#32,.T.);
#306=EDGE_CURVE('',#278,#274,#102,.T.);
#308=EDGE_CURVE('',#278,#290,#36,.T.);
#312=EDGE_CURVE('',#235,#236,#5,.T.);
#314=EDGE_CURVE('',#236,#235,#10,.T.);
#318=EDGE_CURVE('',#243,#244,#15,.T.);
#320=EDGE_CURVE('',#244,#243,#20,.T.);
#330=EDGE_CURVE('',#259,#260,#58,.T.);
#332=EDGE_CURVE('',#260,#236,#191,.T.);
#335=EDGE_CURVE('',#259,#235,#40,.T.);
#345=EDGE_CURVE('',#263,#264,#116,.T.);
#347=EDGE_CURVE('',#239,#263,#44,.T.);
#349=EDGE_CURVE('',#239,#240,#156,.T.);
#351=EDGE_CURVE('',#240,#264,#195,.T.);
#361=EDGE_CURVE('',#251,#252,#67,.T.);
#363=EDGE_CURVE('',#251,#267,#48,.T.);
#365=EDGE_CURVE('',#267,#268,#211,.T.);
#367=EDGE_CURVE('',#284,#268,#125,.T.);
#369=EDGE_CURVE('',#284,#252,#53,.T.);
#374=EDGE_CURVE('',#260,#259,#63,.T.);
#385=EDGE_CURVE('',#252,#274,#106,.T.);
#388=EDGE_CURVE('',#228,#232,#71,.T.);
#390=EDGE_CURVE('',#232,#276,#179,.T.);
#392=EDGE_CURVE('',#276,#256,#84,.T.);
#394=EDGE_CURVE('',#255,#256,#75,.T.);
#396=EDGE_CURVE('',#255,#251,#80,.T.);
#406=EDGE_CURVE('',#282,#256,#111,.T.);
#409=EDGE_CURVE('',#276,#280,#89,.T.);
#411=EDGE_CURVE('',#280,#282,#93,.T.);
#422=EDGE_CURVE('',#284,#278,#97,.T.);
#436=EDGE_CURVE('',#282,#271,#133,.T.);
#438=EDGE_CURVE('',#271,#272,#220,.T.);
#440=EDGE_CURVE('',#255,#272,#224,.T.);
#445=EDGE_CURVE('',#264,#263,#121,.T.);
#455=EDGE_CURVE('',#292,#290,#146,.T.);
#460=EDGE_CURVE('',#268,#271,#129,.T.);
#464=EDGE_CURVE('',#280,#292,#175,.T.);
#474=EDGE_CURVE('',#287,#288,#137,.T.);
#478=EDGE_CURVE('',#292,#287,#151,.T.);
#489=EDGE_CURVE('',#287,#231,#187,.T.);
#491=EDGE_CURVE('',#227,#231,#207,.T.);
#506=EDGE_CURVE('',#231,#232,#183,.T.);
#512=EDGE_CURVE('',#240,#239,#161,.T.);
#516=EDGE_CURVE('',#247,#248,#166,.T.);
#518=EDGE_CURVE('',#248,#247,#171,.T.);
#553=EDGE_CURVE('',#247,#243,#199,.T.);
#556=EDGE_CURVE('',#248,#244,#203,.T.);
#591=EDGE_CURVE('',#272,#267,#216,.T.);
#623=ADVANCED_BREP_SHAPE_REPRESENTATION('',(#611),#622);
#630=PRODUCT_DEFINITION('design','',#629,#626);
#631=PRODUCT_DEFINITION_SHAPE('','SHAPE FOR 91600602.',#630);
#632=SHAPE_DEFINITION_REPRESENTATION(#631,#623);
ENDSEC;
END-ISO-10303-21;
