ISO-10303-21;
HEADER;
FILE_DESCRIPTION((''),'2;1');
FILE_NAME('ILCM41071501','2014-04-10T',('kr'),(''),
'PRO/ENGINEER BY PARAMETRIC TECHNOLOGY CORPORATION, 2013320',
'PRO/ENGINEER BY PARAMETRIC TECHNOLOGY CORPORATION, 2013320','');
FILE_SCHEMA(('AUTOMOTIVE_DESIGN { 1 0 10303 214 1 1 1 1 }'));
ENDSEC;
DATA;
#15=CARTESIAN_POINT('',(0.E0,0.E0,0.E0));
#16=DIRECTION('',(0.E0,0.E0,-1.E0));
#17=DIRECTION('',(1.E0,0.E0,0.E0));
#18=AXIS2_PLACEMENT_3D('',#15,#16,#17);
#20=CARTESIAN_POINT('',(0.E0,0.E0,0.E0));
#21=DIRECTION('',(0.E0,0.E0,-1.E0));
#22=DIRECTION('',(-1.E0,0.E0,0.E0));
#23=AXIS2_PLACEMENT_3D('',#20,#21,#22);
#25=CARTESIAN_POINT('',(0.E0,0.E0,0.E0));
#26=DIRECTION('',(0.E0,0.E0,-1.E0));
#27=DIRECTION('',(1.E0,0.E0,0.E0));
#28=AXIS2_PLACEMENT_3D('',#25,#26,#27);
#30=CARTESIAN_POINT('',(0.E0,0.E0,0.E0));
#31=DIRECTION('',(0.E0,0.E0,-1.E0));
#32=DIRECTION('',(-1.E0,0.E0,0.E0));
#33=AXIS2_PLACEMENT_3D('',#30,#31,#32);
#35=CARTESIAN_POINT('',(0.E0,0.E0,7.62E-1));
#36=DIRECTION('',(0.E0,0.E0,-1.E0));
#37=DIRECTION('',(1.E0,0.E0,0.E0));
#38=AXIS2_PLACEMENT_3D('',#35,#36,#37);
#40=DIRECTION('',(0.E0,0.E0,-1.E0));
#41=VECTOR('',#40,7.62E-1);
#42=CARTESIAN_POINT('',(-6.604E0,0.E0,7.62E-1));
#43=LINE('',#42,#41);
#44=CARTESIAN_POINT('',(0.E0,0.E0,7.62E-1));
#45=DIRECTION('',(0.E0,0.E0,1.E0));
#46=DIRECTION('',(1.E0,0.E0,0.E0));
#47=AXIS2_PLACEMENT_3D('',#44,#45,#46);
#49=DIRECTION('',(0.E0,0.E0,-1.E0));
#50=VECTOR('',#49,7.62E-1);
#51=CARTESIAN_POINT('',(6.604E0,0.E0,7.62E-1));
#52=LINE('',#51,#50);
#53=CARTESIAN_POINT('',(0.E0,0.E0,7.62E-1));
#54=DIRECTION('',(0.E0,0.E0,-1.E0));
#55=DIRECTION('',(1.E0,0.E0,0.E0));
#56=AXIS2_PLACEMENT_3D('',#53,#54,#55);
#58=CARTESIAN_POINT('',(0.E0,0.E0,7.62E-1));
#59=DIRECTION('',(0.E0,0.E0,1.E0));
#60=DIRECTION('',(1.E0,0.E0,0.E0));
#61=AXIS2_PLACEMENT_3D('',#58,#59,#60);
#63=CARTESIAN_POINT('',(0.E0,0.E0,1.044069991269E1));
#64=DIRECTION('',(0.E0,0.E0,-1.E0));
#65=DIRECTION('',(1.E0,0.E0,0.E0));
#66=AXIS2_PLACEMENT_3D('',#63,#64,#65);
#68=DIRECTION('',(-8.660254037844E-1,0.E0,-5.E-1));
#69=VECTOR('',#68,1.935739982539E1);
#70=CARTESIAN_POINT('',(2.8448E1,0.E0,1.044069991269E1));
#71=LINE('',#70,#69);
#72=DIRECTION('',(8.660254037844E-1,0.E0,-5.E-1));
#73=VECTOR('',#72,1.935739982539E1);
#74=CARTESIAN_POINT('',(-2.8448E1,0.E0,1.044069991269E1));
#75=LINE('',#74,#73);
#76=CARTESIAN_POINT('',(0.E0,0.E0,1.044069991269E1));
#77=DIRECTION('',(0.E0,0.E0,1.E0));
#78=DIRECTION('',(1.E0,0.E0,0.E0));
#79=AXIS2_PLACEMENT_3D('',#76,#77,#78);
#81=CARTESIAN_POINT('',(2.7686E1,0.E0,1.176052262806E1));
#82=DIRECTION('',(0.E0,1.E0,0.E0));
#83=DIRECTION('',(1.E0,0.E0,0.E0));
#84=AXIS2_PLACEMENT_3D('',#81,#82,#83);
#86=CARTESIAN_POINT('',(-2.7686E1,0.E0,1.176052262806E1));
#87=DIRECTION('',(0.E0,-1.E0,0.E0));
#88=DIRECTION('',(-1.E0,0.E0,0.E0));
#89=AXIS2_PLACEMENT_3D('',#86,#87,#88);
#91=CARTESIAN_POINT('',(0.E0,0.E0,1.176052262806E1));
#92=DIRECTION('',(0.E0,0.E0,1.E0));
#93=DIRECTION('',(1.E0,0.E0,0.E0));
#94=AXIS2_PLACEMENT_3D('',#91,#92,#93);
#96=CARTESIAN_POINT('',(0.E0,0.E0,1.176052262806E1));
#97=DIRECTION('',(0.E0,0.E0,-1.E0));
#98=DIRECTION('',(1.E0,0.E0,0.E0));
#99=AXIS2_PLACEMENT_3D('',#96,#97,#98);
#101=CARTESIAN_POINT('',(0.E0,0.E0,2.54E1));
#102=DIRECTION('',(0.E0,0.E0,1.E0));
#103=DIRECTION('',(1.E0,0.E0,0.E0));
#104=AXIS2_PLACEMENT_3D('',#101,#102,#103);
#106=CARTESIAN_POINT('',(0.E0,0.E0,2.54E1));
#107=DIRECTION('',(0.E0,0.E0,1.E0));
#108=DIRECTION('',(-1.E0,0.E0,0.E0));
#109=AXIS2_PLACEMENT_3D('',#106,#107,#108);
#111=CARTESIAN_POINT('',(0.E0,0.E0,2.54E1));
#112=DIRECTION('',(0.E0,0.E0,-1.E0));
#113=DIRECTION('',(1.E0,0.E0,0.E0));
#114=AXIS2_PLACEMENT_3D('',#111,#112,#113);
#116=CARTESIAN_POINT('',(0.E0,0.E0,2.54E1));
#117=DIRECTION('',(0.E0,0.E0,-1.E0));
#118=DIRECTION('',(-1.E0,0.E0,0.E0));
#119=AXIS2_PLACEMENT_3D('',#116,#117,#118);
#121=DIRECTION('',(0.E0,0.E0,1.E0));
#122=VECTOR('',#121,1.4732E1);
#123=CARTESIAN_POINT('',(2.9972E1,0.E0,1.0668E1));
#124=LINE('',#123,#122);
#125=DIRECTION('',(8.660254037844E-1,0.E0,5.E-1));
#126=VECTOR('',#125,2.1336E1);
#127=CARTESIAN_POINT('',(1.149448198486E1,0.E0,0.E0));
#128=LINE('',#127,#126);
#129=CARTESIAN_POINT('',(0.E0,0.E0,1.0668E1));
#130=DIRECTION('',(0.E0,0.E0,1.E0));
#131=DIRECTION('',(1.E0,0.E0,0.E0));
#132=AXIS2_PLACEMENT_3D('',#129,#130,#131);
#134=DIRECTION('',(-8.660254037844E-1,0.E0,5.E-1));
#135=VECTOR('',#134,2.1336E1);
#136=CARTESIAN_POINT('',(-1.149448198486E1,0.E0,0.E0));
#137=LINE('',#136,#135);
#138=CARTESIAN_POINT('',(0.E0,0.E0,1.0668E1));
#139=DIRECTION('',(0.E0,0.E0,1.E0));
#140=DIRECTION('',(-1.E0,0.E0,0.E0));
#141=AXIS2_PLACEMENT_3D('',#138,#139,#140);
#143=DIRECTION('',(0.E0,0.E0,1.E0));
#144=VECTOR('',#143,1.4732E1);
#145=CARTESIAN_POINT('',(-2.9972E1,0.E0,1.0668E1));
#146=LINE('',#145,#144);
#147=DIRECTION('',(0.E0,0.E0,-1.E0));
#148=VECTOR('',#147,1.363947737194E1);
#149=CARTESIAN_POINT('',(2.921E1,0.E0,2.54E1));
#150=LINE('',#149,#148);
#151=DIRECTION('',(0.E0,0.E0,-1.E0));
#152=VECTOR('',#151,1.363947737194E1);
#153=CARTESIAN_POINT('',(-2.921E1,0.E0,2.54E1));
#154=LINE('',#153,#152);
#155=CARTESIAN_POINT('',(2.9972E1,0.E0,2.54E1));
#156=CARTESIAN_POINT('',(-2.9972E1,0.E0,2.54E1));
#157=VERTEX_POINT('',#155);
#158=VERTEX_POINT('',#156);
#159=CARTESIAN_POINT('',(2.8448E1,0.E0,1.044069991269E1));
#160=CARTESIAN_POINT('',(1.1684E1,0.E0,7.62E-1));
#161=VERTEX_POINT('',#159);
#162=VERTEX_POINT('',#160);
#163=CARTESIAN_POINT('',(-2.8448E1,0.E0,1.044069991269E1));
#164=CARTESIAN_POINT('',(-1.1684E1,0.E0,7.62E-1));
#165=VERTEX_POINT('',#163);
#166=VERTEX_POINT('',#164);
#167=CARTESIAN_POINT('',(6.604E0,0.E0,7.62E-1));
#168=CARTESIAN_POINT('',(-6.604E0,0.E0,7.62E-1));
#169=VERTEX_POINT('',#167);
#170=VERTEX_POINT('',#168);
#171=CARTESIAN_POINT('',(6.604E0,0.E0,0.E0));
#172=CARTESIAN_POINT('',(-6.604E0,0.E0,0.E0));
#173=VERTEX_POINT('',#171);
#174=VERTEX_POINT('',#172);
#175=CARTESIAN_POINT('',(2.921E1,0.E0,2.54E1));
#176=CARTESIAN_POINT('',(-2.921E1,0.E0,2.54E1));
#177=VERTEX_POINT('',#175);
#178=VERTEX_POINT('',#176);
#179=CARTESIAN_POINT('',(2.921E1,0.E0,1.176052262806E1));
#180=VERTEX_POINT('',#179);
#181=CARTESIAN_POINT('',(-2.921E1,0.E0,1.176052262806E1));
#182=VERTEX_POINT('',#181);
#183=CARTESIAN_POINT('',(1.149448198486E1,0.E0,0.E0));
#184=CARTESIAN_POINT('',(-1.149448198486E1,0.E0,0.E0));
#185=VERTEX_POINT('',#183);
#186=VERTEX_POINT('',#184);
#187=CARTESIAN_POINT('',(2.9972E1,0.E0,1.0668E1));
#188=CARTESIAN_POINT('',(-2.9972E1,0.E0,1.0668E1));
#189=VERTEX_POINT('',#187);
#190=VERTEX_POINT('',#188);
#191=CARTESIAN_POINT('',(0.E0,0.E0,0.E0));
#192=DIRECTION('',(0.E0,0.E0,1.E0));
#193=DIRECTION('',(1.E0,0.E0,0.E0));
#194=AXIS2_PLACEMENT_3D('',#191,#192,#193);
#195=PLANE('',#194);
#197=ORIENTED_EDGE('',*,*,#196,.F.);
#199=ORIENTED_EDGE('',*,*,#198,.F.);
#200=EDGE_LOOP('',(#197,#199));
#201=FACE_OUTER_BOUND('',#200,.F.);
#203=ORIENTED_EDGE('',*,*,#202,.T.);
#205=ORIENTED_EDGE('',*,*,#204,.T.);
#206=EDGE_LOOP('',(#203,#205));
#207=FACE_BOUND('',#206,.F.);
#209=CARTESIAN_POINT('',(0.E0,0.E0,2.667E1));
#210=DIRECTION('',(0.E0,0.E0,-1.E0));
#211=DIRECTION('',(1.E0,0.E0,0.E0));
#212=AXIS2_PLACEMENT_3D('',#209,#210,#211);
#213=CYLINDRICAL_SURFACE('',#212,6.604E0);
#214=ORIENTED_EDGE('',*,*,#202,.F.);
#216=ORIENTED_EDGE('',*,*,#215,.F.);
#218=ORIENTED_EDGE('',*,*,#217,.T.);
#220=ORIENTED_EDGE('',*,*,#219,.T.);
#221=EDGE_LOOP('',(#214,#216,#218,#220));
#222=FACE_OUTER_BOUND('',#221,.F.);
#224=CARTESIAN_POINT('',(0.E0,0.E0,2.667E1));
#225=DIRECTION('',(0.E0,0.E0,-1.E0));
#226=DIRECTION('',(1.E0,0.E0,0.E0));
#227=AXIS2_PLACEMENT_3D('',#224,#225,#226);
#228=CYLINDRICAL_SURFACE('',#227,6.604E0);
#229=ORIENTED_EDGE('',*,*,#204,.F.);
#230=ORIENTED_EDGE('',*,*,#219,.F.);
#232=ORIENTED_EDGE('',*,*,#231,.F.);
#233=ORIENTED_EDGE('',*,*,#215,.T.);
#234=EDGE_LOOP('',(#229,#230,#232,#233));
#235=FACE_OUTER_BOUND('',#234,.F.);
#237=CARTESIAN_POINT('',(0.E0,0.E0,7.62E-1));
#238=DIRECTION('',(0.E0,0.E0,-1.E0));
#239=DIRECTION('',(1.E0,0.E0,0.E0));
#240=AXIS2_PLACEMENT_3D('',#237,#238,#239);
#241=PLANE('',#240);
#243=ORIENTED_EDGE('',*,*,#242,.T.);
#245=ORIENTED_EDGE('',*,*,#244,.F.);
#246=EDGE_LOOP('',(#243,#245));
#247=FACE_OUTER_BOUND('',#246,.F.);
#248=ORIENTED_EDGE('',*,*,#231,.T.);
#249=ORIENTED_EDGE('',*,*,#217,.F.);
#250=EDGE_LOOP('',(#248,#249));
#251=FACE_BOUND('',#250,.F.);
#253=CARTESIAN_POINT('',(0.E0,0.E0,5.601349956347E0));
#254=DIRECTION('',(0.E0,0.E0,1.E0));
#255=DIRECTION('',(-1.E0,0.E0,0.E0));
#256=AXIS2_PLACEMENT_3D('',#253,#254,#255);
#257=CONICAL_SURFACE('',#256,2.0066E1,6.E1);
#259=ORIENTED_EDGE('',*,*,#258,.F.);
#261=ORIENTED_EDGE('',*,*,#260,.T.);
#263=ORIENTED_EDGE('',*,*,#262,.T.);
#264=ORIENTED_EDGE('',*,*,#242,.F.);
#265=EDGE_LOOP('',(#259,#261,#263,#264));
#266=FACE_OUTER_BOUND('',#265,.F.);
#268=CARTESIAN_POINT('',(0.E0,0.E0,5.601349956347E0));
#269=DIRECTION('',(0.E0,0.E0,1.E0));
#270=DIRECTION('',(-1.E0,0.E0,0.E0));
#271=AXIS2_PLACEMENT_3D('',#268,#269,#270);
#272=CONICAL_SURFACE('',#271,2.0066E1,6.E1);
#273=ORIENTED_EDGE('',*,*,#258,.T.);
#274=ORIENTED_EDGE('',*,*,#244,.T.);
#275=ORIENTED_EDGE('',*,*,#262,.F.);
#277=ORIENTED_EDGE('',*,*,#276,.F.);
#278=EDGE_LOOP('',(#273,#274,#275,#277));
#279=FACE_OUTER_BOUND('',#278,.F.);
#281=CARTESIAN_POINT('',(0.E0,0.E0,1.176052262806E1));
#282=DIRECTION('',(0.E0,0.E0,-1.E0));
#283=DIRECTION('',(1.E0,0.E0,0.E0));
#284=AXIS2_PLACEMENT_3D('',#281,#282,#283);
#285=TOROIDAL_SURFACE('',#284,2.7686E1,1.524E0);
#287=ORIENTED_EDGE('',*,*,#286,.T.);
#288=ORIENTED_EDGE('',*,*,#276,.T.);
#290=ORIENTED_EDGE('',*,*,#289,.F.);
#292=ORIENTED_EDGE('',*,*,#291,.F.);
#293=EDGE_LOOP('',(#287,#288,#290,#292));
#294=FACE_OUTER_BOUND('',#293,.F.);
#296=CARTESIAN_POINT('',(0.E0,0.E0,1.176052262806E1));
#297=DIRECTION('',(0.E0,0.E0,-1.E0));
#298=DIRECTION('',(1.E0,0.E0,0.E0));
#299=AXIS2_PLACEMENT_3D('',#296,#297,#298);
#300=TOROIDAL_SURFACE('',#299,2.7686E1,1.524E0);
#301=ORIENTED_EDGE('',*,*,#286,.F.);
#303=ORIENTED_EDGE('',*,*,#302,.T.);
#304=ORIENTED_EDGE('',*,*,#289,.T.);
#305=ORIENTED_EDGE('',*,*,#260,.F.);
#306=EDGE_LOOP('',(#301,#303,#304,#305));
#307=FACE_OUTER_BOUND('',#306,.F.);
#309=CARTESIAN_POINT('',(0.E0,0.E0,2.667E1));
#310=DIRECTION('',(0.E0,0.E0,-1.E0));
#311=DIRECTION('',(1.E0,0.E0,0.E0));
#312=AXIS2_PLACEMENT_3D('',#309,#310,#311);
#313=CYLINDRICAL_SURFACE('',#312,2.921E1);
#315=ORIENTED_EDGE('',*,*,#314,.T.);
#317=ORIENTED_EDGE('',*,*,#316,.T.);
#318=ORIENTED_EDGE('',*,*,#302,.F.);
#320=ORIENTED_EDGE('',*,*,#319,.F.);
#321=EDGE_LOOP('',(#315,#317,#318,#320));
#322=FACE_OUTER_BOUND('',#321,.F.);
#324=CARTESIAN_POINT('',(0.E0,0.E0,2.54E1));
#325=DIRECTION('',(0.E0,0.E0,1.E0));
#326=DIRECTION('',(1.E0,0.E0,0.E0));
#327=AXIS2_PLACEMENT_3D('',#324,#325,#326);
#328=PLANE('',#327);
#330=ORIENTED_EDGE('',*,*,#329,.F.);
#332=ORIENTED_EDGE('',*,*,#331,.F.);
#333=EDGE_LOOP('',(#330,#332));
#334=FACE_OUTER_BOUND('',#333,.F.);
#335=ORIENTED_EDGE('',*,*,#314,.F.);
#337=ORIENTED_EDGE('',*,*,#336,.F.);
#338=EDGE_LOOP('',(#335,#337));
#339=FACE_BOUND('',#338,.F.);
#341=CARTESIAN_POINT('',(0.E0,0.E0,0.E0));
#342=DIRECTION('',(0.E0,0.E0,1.E0));
#343=DIRECTION('',(1.E0,0.E0,0.E0));
#344=AXIS2_PLACEMENT_3D('',#341,#342,#343);
#345=CYLINDRICAL_SURFACE('',#344,2.9972E1);
#347=ORIENTED_EDGE('',*,*,#346,.F.);
#349=ORIENTED_EDGE('',*,*,#348,.T.);
#350=ORIENTED_EDGE('',*,*,#329,.T.);
#352=ORIENTED_EDGE('',*,*,#351,.F.);
#353=EDGE_LOOP('',(#347,#349,#350,#352));
#354=FACE_OUTER_BOUND('',#353,.F.);
#356=CARTESIAN_POINT('',(0.E0,0.E0,5.334E0));
#357=DIRECTION('',(0.E0,0.E0,1.E0));
#358=DIRECTION('',(-1.E0,0.E0,0.E0));
#359=AXIS2_PLACEMENT_3D('',#356,#357,#358);
#360=CONICAL_SURFACE('',#359,2.073324099243E1,6.E1);
#361=ORIENTED_EDGE('',*,*,#198,.T.);
#363=ORIENTED_EDGE('',*,*,#362,.T.);
#364=ORIENTED_EDGE('',*,*,#346,.T.);
#366=ORIENTED_EDGE('',*,*,#365,.F.);
#367=EDGE_LOOP('',(#361,#363,#364,#366));
#368=FACE_OUTER_BOUND('',#367,.F.);
#370=CARTESIAN_POINT('',(0.E0,0.E0,5.334E0));
#371=DIRECTION('',(0.E0,0.E0,1.E0));
#372=DIRECTION('',(-1.E0,0.E0,0.E0));
#373=AXIS2_PLACEMENT_3D('',#370,#371,#372);
#374=CONICAL_SURFACE('',#373,2.073324099243E1,6.E1);
#375=ORIENTED_EDGE('',*,*,#196,.T.);
#376=ORIENTED_EDGE('',*,*,#365,.T.);
#378=ORIENTED_EDGE('',*,*,#377,.T.);
#379=ORIENTED_EDGE('',*,*,#362,.F.);
#380=EDGE_LOOP('',(#375,#376,#378,#379));
#381=FACE_OUTER_BOUND('',#380,.F.);
#383=CARTESIAN_POINT('',(0.E0,0.E0,0.E0));
#384=DIRECTION('',(0.E0,0.E0,1.E0));
#385=DIRECTION('',(1.E0,0.E0,0.E0));
#386=AXIS2_PLACEMENT_3D('',#383,#384,#385);
#387=CYLINDRICAL_SURFACE('',#386,2.9972E1);
#388=ORIENTED_EDGE('',*,*,#377,.F.);
#389=ORIENTED_EDGE('',*,*,#351,.T.);
#390=ORIENTED_EDGE('',*,*,#331,.T.);
#391=ORIENTED_EDGE('',*,*,#348,.F.);
#392=EDGE_LOOP('',(#388,#389,#390,#391));
#393=FACE_OUTER_BOUND('',#392,.F.);
#395=CARTESIAN_POINT('',(0.E0,0.E0,2.667E1));
#396=DIRECTION('',(0.E0,0.E0,-1.E0));
#397=DIRECTION('',(1.E0,0.E0,0.E0));
#398=AXIS2_PLACEMENT_3D('',#395,#396,#397);
#399=CYLINDRICAL_SURFACE('',#398,2.921E1);
#400=ORIENTED_EDGE('',*,*,#336,.T.);
#401=ORIENTED_EDGE('',*,*,#319,.T.);
#402=ORIENTED_EDGE('',*,*,#291,.T.);
#403=ORIENTED_EDGE('',*,*,#316,.F.);
#404=EDGE_LOOP('',(#400,#401,#402,#403));
#405=FACE_OUTER_BOUND('',#404,.F.);
#407=CLOSED_SHELL('',(#208,#223,#236,#252,#267,#280,#295,#308,#323,#340,#355,
#369,#382,#394,#406));
#408=MANIFOLD_SOLID_BREP('',#407);
#411=PLANE_ANGLE_MEASURE_WITH_UNIT(PLANE_ANGLE_MEASURE(1.745329251994E-2),#410);
#412=(CONVERSION_BASED_UNIT('DEGREE',#411)NAMED_UNIT(*)PLANE_ANGLE_UNIT());
#414=UNCERTAINTY_MEASURE_WITH_UNIT(LENGTH_MEASURE(8.849350115364E-3),#409,
'distance_accuracy_value',
'Maximum model space distance between geometric entities at asserted connectivities');
#417=APPLICATION_CONTEXT('automotive_design');
#418=APPLICATION_PROTOCOL_DEFINITION('international standard',
'automotive_design',2001,#417);
#419=PRODUCT_DEFINITION_CONTEXT('part definition',#417,'design');
#420=PRODUCT_CONTEXT('',#417,'mechanical');
#421=PRODUCT('ILCM41071501','ILCM41071501','NOT SPECIFIED',(#420));
#422=PRODUCT_DEFINITION_FORMATION('1','LAST_VERSION',#421);
#430=DERIVED_UNIT_ELEMENT(#429,2.E0);
#431=DERIVED_UNIT((#430));
#432=MEASURE_REPRESENTATION_ITEM('surface area measure',AREA_MEASURE(
1.153109152085E4),#431);
#437=DERIVED_UNIT_ELEMENT(#436,3.E0);
#438=DERIVED_UNIT((#437));
#439=MEASURE_REPRESENTATION_ITEM('volume measure',VOLUME_MEASURE(
3.831979310809E3),#438);
#443=CARTESIAN_POINT('centre point',(-3.411408335863E-14,0.E0,
1.237931866343E1));
#448=DERIVED_UNIT_ELEMENT(#447,2.E0);
#449=DERIVED_UNIT((#448));
#450=MEASURE_REPRESENTATION_ITEM('surface area measure',AREA_MEASURE(
1.153109152085E4),#449);
#455=DERIVED_UNIT_ELEMENT(#454,3.E0);
#456=DERIVED_UNIT((#455));
#457=MEASURE_REPRESENTATION_ITEM('volume measure',VOLUME_MEASURE(
3.831979310809E3),#456);
#461=CARTESIAN_POINT('centre point',(-3.411408335863E-14,0.E0,
1.237931866343E1));
#466=PRODUCT_RELATED_PRODUCT_CATEGORY('part','',(#421));
#1=DRAUGHTING_PRE_DEFINED_COLOUR('blue');
#2=DRAUGHTING_PRE_DEFINED_COLOUR('green');
#3=COLOUR_RGB('',1.1E-2,1.2E-2,1.E0);
#4=COLOUR_RGB('',3.92E-1,1.2E-2,1.2E-2);
#5=COLOUR_RGB('',4.1E-1,0.E0,2.2E-1);
#6=COLOUR_RGB('',6.952E-1,7.426E-1,7.9E-1);
#7=COLOUR_RGB('',7.84314E-1,7.84314E-1,7.84314E-1);
#8=COLOUR_RGB('',8.784E-1,9.49E-1,1.E0);
#9=COLOUR_RGB('',9.6E-1,9.6E-1,9.6E-1);
#10=COLOUR_RGB('',9.8E-1,6.27E-1,0.E0);
#11=DRAUGHTING_PRE_DEFINED_COLOUR('red');
#12=DRAUGHTING_PRE_DEFINED_COLOUR('yellow');
#13=COLOUR_RGB('',1.E0,1.E0,9.49E-1);
#14=DRAUGHTING_PRE_DEFINED_COLOUR('white');
#19=CIRCLE('',#18,6.604E0);
#24=CIRCLE('',#23,6.604E0);
#29=CIRCLE('',#28,1.149448198486E1);
#34=CIRCLE('',#33,1.149448198486E1);
#39=CIRCLE('',#38,6.604E0);
#48=CIRCLE('',#47,6.604E0);
#57=CIRCLE('',#56,1.1684E1);
#62=CIRCLE('',#61,1.1684E1);
#67=CIRCLE('',#66,2.8448E1);
#80=CIRCLE('',#79,2.8448E1);
#85=CIRCLE('',#84,1.524E0);
#90=CIRCLE('',#89,1.524E0);
#95=CIRCLE('',#94,2.921E1);
#100=CIRCLE('',#99,2.921E1);
#105=CIRCLE('',#104,2.9972E1);
#110=CIRCLE('',#109,2.9972E1);
#115=CIRCLE('',#114,2.921E1);
#120=CIRCLE('',#119,2.921E1);
#133=CIRCLE('',#132,2.9972E1);
#142=CIRCLE('',#141,2.9972E1);
#196=EDGE_CURVE('',#185,#186,#29,.T.);
#198=EDGE_CURVE('',#186,#185,#34,.T.);
#202=EDGE_CURVE('',#173,#174,#19,.T.);
#204=EDGE_CURVE('',#174,#173,#24,.T.);
#208=ADVANCED_FACE('',(#201,#207),#195,.F.);
#215=EDGE_CURVE('',#169,#173,#52,.T.);
#217=EDGE_CURVE('',#169,#170,#39,.T.);
#219=EDGE_CURVE('',#170,#174,#43,.T.);
#223=ADVANCED_FACE('',(#222),#213,.F.);
#231=EDGE_CURVE('',#169,#170,#48,.T.);
#236=ADVANCED_FACE('',(#235),#228,.F.);
#242=EDGE_CURVE('',#162,#166,#57,.T.);
#244=EDGE_CURVE('',#162,#166,#62,.T.);
#252=ADVANCED_FACE('',(#247,#251),#241,.F.);
#258=EDGE_CURVE('',#161,#162,#71,.T.);
#260=EDGE_CURVE('',#161,#165,#67,.T.);
#262=EDGE_CURVE('',#165,#166,#75,.T.);
#267=ADVANCED_FACE('',(#266),#257,.F.);
#276=EDGE_CURVE('',#161,#165,#80,.T.);
#280=ADVANCED_FACE('',(#279),#272,.F.);
#286=EDGE_CURVE('',#180,#161,#85,.T.);
#289=EDGE_CURVE('',#182,#165,#90,.T.);
#291=EDGE_CURVE('',#180,#182,#95,.T.);
#295=ADVANCED_FACE('',(#294),#285,.F.);
#302=EDGE_CURVE('',#180,#182,#100,.T.);
#308=ADVANCED_FACE('',(#307),#300,.F.);
#314=EDGE_CURVE('',#177,#178,#115,.T.);
#316=EDGE_CURVE('',#178,#182,#154,.T.);
#319=EDGE_CURVE('',#177,#180,#150,.T.);
#323=ADVANCED_FACE('',(#322),#313,.F.);
#329=EDGE_CURVE('',#157,#158,#105,.T.);
#331=EDGE_CURVE('',#158,#157,#110,.T.);
#336=EDGE_CURVE('',#178,#177,#120,.T.);
#340=ADVANCED_FACE('',(#334,#339),#328,.T.);
#346=EDGE_CURVE('',#189,#190,#133,.T.);
#348=EDGE_CURVE('',#189,#157,#124,.T.);
#351=EDGE_CURVE('',#190,#158,#146,.T.);
#355=ADVANCED_FACE('',(#354),#345,.T.);
#362=EDGE_CURVE('',#185,#189,#128,.T.);
#365=EDGE_CURVE('',#186,#190,#137,.T.);
#369=ADVANCED_FACE('',(#368),#360,.T.);
#377=EDGE_CURVE('',#190,#189,#142,.T.);
#382=ADVANCED_FACE('',(#381),#374,.T.);
#394=ADVANCED_FACE('',(#393),#387,.T.);
#406=ADVANCED_FACE('',(#405),#399,.F.);
#409=(LENGTH_UNIT()NAMED_UNIT(*)SI_UNIT(.MILLI.,.METRE.));
#410=(NAMED_UNIT(*)PLANE_ANGLE_UNIT()SI_UNIT($,.RADIAN.));
#413=(NAMED_UNIT(*)SI_UNIT($,.STERADIAN.)SOLID_ANGLE_UNIT());
#415=(GEOMETRIC_REPRESENTATION_CONTEXT(3)GLOBAL_UNCERTAINTY_ASSIGNED_CONTEXT((
#414))GLOBAL_UNIT_ASSIGNED_CONTEXT((#409,#412,#413))REPRESENTATION_CONTEXT
('ID1','3'));
#416=ADVANCED_BREP_SHAPE_REPRESENTATION('',(#408),#415);
#423=PRODUCT_DEFINITION('part definition','',#422,#419);
#424=PRODUCT_DEFINITION_SHAPE('','SHAPE FOR ILCM41071501.',#423);
#425=SHAPE_ASPECT('','solid data associated with ILCM41071501',#424,.F.);
#426=PROPERTY_DEFINITION('',
'shape for solid data with which properties are associated',#425);
#427=SHAPE_REPRESENTATION('',(#408),#415);
#428=SHAPE_DEFINITION_REPRESENTATION(#426,#427);
#429=(LENGTH_UNIT()NAMED_UNIT(*)SI_UNIT(.MILLI.,.METRE.));
#433=PROPERTY_DEFINITION('geometric validation property','area of ILCM41071501',
#425);
#434=REPRESENTATION('surface area',(#432),#415);
#435=PROPERTY_DEFINITION_REPRESENTATION(#433,#434);
#436=(LENGTH_UNIT()NAMED_UNIT(*)SI_UNIT(.MILLI.,.METRE.));
#440=PROPERTY_DEFINITION('geometric validation property',
'volume of ILCM41071501',#425);
#441=REPRESENTATION('volume',(#439),#415);
#442=PROPERTY_DEFINITION_REPRESENTATION(#440,#441);
#444=PROPERTY_DEFINITION('geometric validation property',
'centroid of ILCM41071501',#425);
#445=REPRESENTATION('centroid',(#443),#415);
#446=PROPERTY_DEFINITION_REPRESENTATION(#444,#445);
#447=(LENGTH_UNIT()NAMED_UNIT(*)SI_UNIT(.MILLI.,.METRE.));
#451=PROPERTY_DEFINITION('geometric validation property','area of ILCM41071501',
#424);
#452=REPRESENTATION('surface area',(#450),#415);
#453=PROPERTY_DEFINITION_REPRESENTATION(#451,#452);
#454=(LENGTH_UNIT()NAMED_UNIT(*)SI_UNIT(.MILLI.,.METRE.));
#458=PROPERTY_DEFINITION('geometric validation property',
'volume of ILCM41071501',#424);
#459=REPRESENTATION('volume',(#457),#415);
#460=PROPERTY_DEFINITION_REPRESENTATION(#458,#459);
#462=PROPERTY_DEFINITION('geometric validation property',
'centroid of ILCM41071501',#424);
#463=REPRESENTATION('centroid',(#461),#415);
#464=PROPERTY_DEFINITION_REPRESENTATION(#462,#463);
#465=SHAPE_DEFINITION_REPRESENTATION(#424,#416);
ENDSEC;
END-ISO-10303-21;
