ISO-10303-21;
HEADER;
FILE_DESCRIPTION((''),'2;1');
FILE_NAME('ILCM91602102','2006-04-27T',('KR'),(''),
'PRO/ENGINEER BY PARAMETRIC TECHNOLOGY CORPORATION, 2004290',
'PRO/ENGINEER BY PARAMETRIC TECHNOLOGY CORPORATION, 2004290','');
FILE_SCHEMA(('AUTOMOTIVE_DESIGN_CC2 { 1 2 10303 214 -1 1 5 2 }'));
ENDSEC;
DATA;
#1=COLOUR_RGB('',0.E0,0.E0,4.7E-1);
#2=COLOUR_RGB('',0.E0,0.E0,6.E-1);
#3=COLOUR_RGB('',0.E0,0.E0,8.E-1);
#4=DRAUGHTING_PRE_DEFINED_COLOUR('blue');
#5=COLOUR_RGB('',0.E0,2.E-1,1.E0);
#6=COLOUR_RGB('',0.E0,3.3E-1,0.E0);
#7=COLOUR_RGB('',0.E0,3.3E-1,3.3E-1);
#8=COLOUR_RGB('',0.E0,4.E-1,0.E0);
#9=COLOUR_RGB('',0.E0,4.E-1,4.E-1);
#10=COLOUR_RGB('',0.E0,4.E-1,1.E0);
#11=COLOUR_RGB('',0.E0,5.3E-1,5.3E-1);
#12=COLOUR_RGB('',0.E0,6.E-1,0.E0);
#13=COLOUR_RGB('',0.E0,6.E-1,6.E-1);
#14=COLOUR_RGB('',0.E0,6.E-1,1.E0);
#15=COLOUR_RGB('',0.E0,8.E-1,0.E0);
#16=COLOUR_RGB('',0.E0,8.E-1,8.E-1);
#17=COLOUR_RGB('',0.E0,8.E-1,1.E0);
#18=COLOUR_RGB('',0.E0,9.3E-1,0.E0);
#19=COLOUR_RGB('',0.E0,9.3E-1,9.3E-1);
#20=DRAUGHTING_PRE_DEFINED_COLOUR('green');
#21=COLOUR_RGB('',0.E0,1.E0,2.E-1);
#22=COLOUR_RGB('',0.E0,1.E0,4.E-1);
#23=COLOUR_RGB('',0.E0,1.E0,6.E-1);
#24=COLOUR_RGB('',0.E0,1.E0,8.E-1);
#25=DRAUGHTING_PRE_DEFINED_COLOUR('cyan');
#26=COLOUR_RGB('',7.E-2,7.E-2,1.E0);
#27=COLOUR_RGB('',2.E-1,1.E0,0.E0);
#28=COLOUR_RGB('',2.E-1,1.E0,2.E-1);
#29=COLOUR_RGB('',2.E-1,1.E0,1.E0);
#30=COLOUR_RGB('',2.7E-1,0.E0,4.E-1);
#31=COLOUR_RGB('',2.7E-1,2.7E-1,0.E0);
#32=COLOUR_RGB('',2.7E-1,2.7E-1,1.E0);
#33=COLOUR_RGB('',3.3E-1,0.E0,0.E0);
#34=COLOUR_RGB('',3.3E-1,0.E0,3.3E-1);
#35=COLOUR_RGB('',3.3E-1,0.E0,5.3E-1);
#36=COLOUR_RGB('',4.E-1,0.E0,4.E-1);
#37=COLOUR_RGB('',4.E-1,0.E0,6.7E-1);
#38=COLOUR_RGB('',4.E-1,1.3E-1,0.E0);
#39=COLOUR_RGB('',4.E-1,4.E-1,0.E0);
#40=COLOUR_RGB('',4.E-1,4.E-1,1.E0);
#41=COLOUR_RGB('',4.E-1,1.E0,0.E0);
#42=COLOUR_RGB('',4.E-1,1.E0,4.E-1);
#43=COLOUR_RGB('',4.E-1,1.E0,1.E0);
#44=COLOUR_RGB('',4.7E-1,0.E0,0.E0);
#45=COLOUR_RGB('',4.7E-1,0.E0,8.E-1);
#46=COLOUR_RGB('',4.7E-1,0.E0,8.7E-1);
#47=COLOUR_RGB('',4.7E-1,2.E-1,7.E-2);
#48=COLOUR_RGB('',4.7E-1,4.7E-1,4.7E-1);
#49=COLOUR_RGB('',5.3E-1,0.E0,9.3E-1);
#50=COLOUR_RGB('',5.3E-1,2.7E-1,1.3E-1);
#51=COLOUR_RGB('',5.3E-1,5.3E-1,1.E0);
#52=COLOUR_RGB('',6.E-1,0.E0,6.E-1);
#53=COLOUR_RGB('',6.E-1,2.E-1,1.E0);
#54=COLOUR_RGB('',6.E-1,3.3E-1,2.E-1);
#55=COLOUR_RGB('',6.E-1,6.E-1,0.E0);
#56=COLOUR_RGB('',6.E-1,6.E-1,1.E0);
#57=COLOUR_RGB('',6.E-1,1.E0,6.E-1);
#58=COLOUR_RGB('',6.E-1,1.E0,1.E0);
#59=COLOUR_RGB('',6.7E-1,0.E0,0.E0);
#60=COLOUR_RGB('',6.7E-1,0.E0,5.3E-1);
#61=COLOUR_RGB('',6.7E-1,4.E-1,2.7E-1);
#62=COLOUR_RGB('',6.7E-1,4.E-1,1.E0);
#63=COLOUR_RGB('',6.7E-1,6.7E-1,1.E0);
#64=COLOUR_RGB('',6.7E-1,1.E0,0.E0);
#65=COLOUR_RGB('',7.3E-1,2.7E-1,1.E0);
#66=COLOUR_RGB('',7.3E-1,4.E-1,0.E0);
#67=COLOUR_RGB('',7.3E-1,4.7E-1,3.3E-1);
#68=COLOUR_RGB('',7.3E-1,7.3E-1,7.3E-1);
#69=COLOUR_RGB('',8.E-1,0.E0,8.E-1);
#70=COLOUR_RGB('',8.E-1,5.3E-1,4.E-1);
#71=COLOUR_RGB('',8.E-1,6.E-1,1.E0);
#72=COLOUR_RGB('',8.E-1,8.E-1,0.E0);
#73=COLOUR_RGB('',8.E-1,8.E-1,1.E0);
#74=COLOUR_RGB('',8.E-1,1.E0,8.E-1);
#75=COLOUR_RGB('',8.E-1,1.E0,1.E0);
#76=COLOUR_RGB('',8.7E-1,0.E0,0.E0);
#77=COLOUR_RGB('',8.7E-1,6.E-1,4.7E-1);
#78=COLOUR_RGB('',9.3E-1,0.E0,9.3E-1);
#79=COLOUR_RGB('',9.3E-1,6.7E-1,5.3E-1);
#80=COLOUR_RGB('',9.3E-1,8.E-1,1.E0);
#81=COLOUR_RGB('',9.3E-1,9.3E-1,0.E0);
#82=COLOUR_RGB('',9.3E-1,1.E0,9.3E-1);
#83=COLOUR_RGB('',9.3E-1,1.E0,1.E0);
#84=DRAUGHTING_PRE_DEFINED_COLOUR('red');
#85=COLOUR_RGB('',1.E0,0.E0,2.7E-1);
#86=COLOUR_RGB('',1.E0,0.E0,4.7E-1);
#87=DRAUGHTING_PRE_DEFINED_COLOUR('magenta');
#88=COLOUR_RGB('',1.E0,7.E-2,7.E-2);
#89=COLOUR_RGB('',1.E0,2.E-1,1.E0);
#90=COLOUR_RGB('',1.E0,2.7E-1,0.E0);
#91=COLOUR_RGB('',1.E0,2.7E-1,2.7E-1);
#92=COLOUR_RGB('',1.E0,4.E-1,1.E0);
#93=COLOUR_RGB('',1.E0,4.7E-1,0.E0);
#94=COLOUR_RGB('',1.E0,4.7E-1,4.7E-1);
#95=COLOUR_RGB('',1.E0,4.7E-1,5.3E-1);
#96=COLOUR_RGB('',1.E0,6.E-1,1.E0);
#97=COLOUR_RGB('',1.E0,6.7E-1,0.E0);
#98=COLOUR_RGB('',1.E0,6.7E-1,6.7E-1);
#99=COLOUR_RGB('',1.E0,7.3E-1,5.3E-1);
#100=COLOUR_RGB('',1.E0,7.3E-1,6.E-1);
#101=COLOUR_RGB('',1.E0,8.E-1,8.E-1);
#102=COLOUR_RGB('',1.E0,8.E-1,1.E0);
#103=COLOUR_RGB('',1.E0,8.7E-1,0.E0);
#104=COLOUR_RGB('',1.E0,9.3E-1,9.3E-1);
#105=COLOUR_RGB('',1.E0,9.3E-1,1.E0);
#106=DRAUGHTING_PRE_DEFINED_COLOUR('yellow');
#107=COLOUR_RGB('',1.E0,1.E0,1.3E-1);
#108=COLOUR_RGB('',1.E0,1.E0,3.3E-1);
#109=COLOUR_RGB('',1.E0,1.E0,5.3E-1);
#110=COLOUR_RGB('',1.E0,1.E0,7.3E-1);
#111=COLOUR_RGB('',1.E0,1.E0,9.3E-1);
#112=DIRECTION('',(1.E0,0.E0,0.E0));
#113=VECTOR('',#112,1.016E2);
#114=CARTESIAN_POINT('',(-1.016E2,-9.525E0,-1.11125E1));
#115=LINE('',#114,#113);
#116=DIRECTION('',(0.E0,1.E0,0.E0));
#117=VECTOR('',#116,2.2225E1);
#118=CARTESIAN_POINT('',(9.525E0,0.E0,-1.11125E1));
#119=LINE('',#118,#117);
#120=DIRECTION('',(-1.E0,0.E0,0.E0));
#121=VECTOR('',#120,1.11125E2);
#122=CARTESIAN_POINT('',(9.525E0,2.2225E1,-1.11125E1));
#123=LINE('',#122,#121);
#124=DIRECTION('',(0.E0,-1.E0,0.E0));
#125=VECTOR('',#124,3.175E1);
#126=CARTESIAN_POINT('',(-1.016E2,2.2225E1,-1.11125E1));
#127=LINE('',#126,#125);
#128=CARTESIAN_POINT('',(0.E0,0.E0,-1.11125E1));
#129=DIRECTION('',(0.E0,0.E0,-1.E0));
#130=DIRECTION('',(-1.E0,0.E0,0.E0));
#131=AXIS2_PLACEMENT_3D('',#128,#129,#130);
#133=CARTESIAN_POINT('',(0.E0,0.E0,-1.11125E1));
#134=DIRECTION('',(0.E0,0.E0,-1.E0));
#135=DIRECTION('',(1.E0,0.E0,0.E0));
#136=AXIS2_PLACEMENT_3D('',#133,#134,#135);
#138=CARTESIAN_POINT('',(-3.01498E1,9.525E0,-1.11125E1));
#139=DIRECTION('',(0.E0,0.E0,-1.E0));
#140=DIRECTION('',(-1.E0,0.E0,0.E0));
#141=AXIS2_PLACEMENT_3D('',#138,#139,#140);
#143=CARTESIAN_POINT('',(-3.01498E1,9.525E0,-1.11125E1));
#144=DIRECTION('',(0.E0,0.E0,-1.E0));
#145=DIRECTION('',(1.E0,0.E0,0.E0));
#146=AXIS2_PLACEMENT_3D('',#143,#144,#145);
#148=DIRECTION('',(1.E0,0.E0,0.E0));
#149=VECTOR('',#148,1.27127E1);
#150=CARTESIAN_POINT('',(-1.27127E1,-9.525E0,-5.6769E0));
#151=LINE('',#150,#149);
#152=DIRECTION('',(0.E0,0.E0,1.E0));
#153=VECTOR('',#152,2.2225E1);
#154=CARTESIAN_POINT('',(-1.016E2,-9.525E0,-1.11125E1));
#155=LINE('',#154,#153);
#156=DIRECTION('',(1.E0,0.E0,0.E0));
#157=VECTOR('',#156,1.27127E1);
#158=CARTESIAN_POINT('',(-1.27127E1,-9.525E0,5.6769E0));
#159=LINE('',#158,#157);
#160=CARTESIAN_POINT('',(-1.27127E1,-9.525E0,0.E0));
#161=DIRECTION('',(0.E0,-1.E0,0.E0));
#162=DIRECTION('',(0.E0,0.E0,1.E0));
#163=AXIS2_PLACEMENT_3D('',#160,#161,#162);
#165=DIRECTION('',(0.E0,1.E0,0.E0));
#166=VECTOR('',#165,2.37998E1);
#167=CARTESIAN_POINT('',(-1.27127E1,-9.525E0,-5.6769E0));
#168=LINE('',#167,#166);
#169=CARTESIAN_POINT('',(0.E0,0.E0,-5.6769E0));
#170=DIRECTION('',(0.E0,0.E0,-1.E0));
#171=DIRECTION('',(1.E0,0.E0,0.E0));
#172=AXIS2_PLACEMENT_3D('',#169,#170,#171);
#174=CARTESIAN_POINT('',(0.E0,0.E0,-5.6769E0));
#175=DIRECTION('',(0.E0,0.E0,-1.E0));
#176=DIRECTION('',(-1.E0,0.E0,0.E0));
#177=AXIS2_PLACEMENT_3D('',#174,#175,#176);
#179=CARTESIAN_POINT('',(0.E0,0.E0,-5.6769E0));
#180=DIRECTION('',(0.E0,0.E0,-1.E0));
#181=DIRECTION('',(1.E0,0.E0,0.E0));
#182=AXIS2_PLACEMENT_3D('',#179,#180,#181);
#184=DIRECTION('',(0.E0,1.E0,0.E0));
#185=VECTOR('',#184,2.37998E1);
#186=CARTESIAN_POINT('',(-1.27127E1,-9.525E0,5.6769E0));
#187=LINE('',#186,#185);
#188=CARTESIAN_POINT('',(0.E0,0.E0,5.6769E0));
#189=DIRECTION('',(0.E0,0.E0,-1.E0));
#190=DIRECTION('',(1.E0,0.E0,0.E0));
#191=AXIS2_PLACEMENT_3D('',#188,#189,#190);
#193=CARTESIAN_POINT('',(0.E0,0.E0,5.6769E0));
#194=DIRECTION('',(0.E0,0.E0,-1.E0));
#195=DIRECTION('',(-1.E0,0.E0,0.E0));
#196=AXIS2_PLACEMENT_3D('',#193,#194,#195);
#198=CARTESIAN_POINT('',(0.E0,0.E0,5.6769E0));
#199=DIRECTION('',(0.E0,0.E0,-1.E0));
#200=DIRECTION('',(1.E0,0.E0,0.E0));
#201=AXIS2_PLACEMENT_3D('',#198,#199,#200);
#203=DIRECTION('',(0.E0,0.E0,-1.E0));
#204=VECTOR('',#203,5.4356E0);
#205=CARTESIAN_POINT('',(0.E0,-9.525E0,1.11125E1));
#206=LINE('',#205,#204);
#207=CARTESIAN_POINT('',(0.E0,0.E0,1.11125E1));
#208=DIRECTION('',(0.E0,0.E0,1.E0));
#209=DIRECTION('',(0.E0,-1.E0,0.E0));
#210=AXIS2_PLACEMENT_3D('',#207,#208,#209);
#212=DIRECTION('',(0.E0,0.E0,-1.E0));
#213=VECTOR('',#212,5.4356E0);
#214=CARTESIAN_POINT('',(9.525E0,0.E0,1.11125E1));
#215=LINE('',#214,#213);
#216=DIRECTION('',(0.E0,0.E0,-1.E0));
#217=VECTOR('',#216,5.4356E0);
#218=CARTESIAN_POINT('',(9.525E0,0.E0,-5.6769E0));
#219=LINE('',#218,#217);
#220=CARTESIAN_POINT('',(0.E0,0.E0,-1.11125E1));
#221=DIRECTION('',(0.E0,0.E0,-1.E0));
#222=DIRECTION('',(1.E0,0.E0,0.E0));
#223=AXIS2_PLACEMENT_3D('',#220,#221,#222);
#225=DIRECTION('',(0.E0,0.E0,-1.E0));
#226=VECTOR('',#225,5.4356E0);
#227=CARTESIAN_POINT('',(0.E0,-9.525E0,-5.6769E0));
#228=LINE('',#227,#226);
#229=DIRECTION('',(1.E0,0.E0,0.E0));
#230=VECTOR('',#229,1.016E2);
#231=CARTESIAN_POINT('',(-1.016E2,-9.525E0,1.11125E1));
#232=LINE('',#231,#230);
#233=DIRECTION('',(0.E0,-1.E0,0.E0));
#234=VECTOR('',#233,3.175E1);
#235=CARTESIAN_POINT('',(-1.016E2,2.2225E1,1.11125E1));
#236=LINE('',#235,#234);
#237=DIRECTION('',(-1.E0,0.E0,0.E0));
#238=VECTOR('',#237,1.11125E2);
#239=CARTESIAN_POINT('',(9.525E0,2.2225E1,1.11125E1));
#240=LINE('',#239,#238);
#241=DIRECTION('',(0.E0,1.E0,0.E0));
#242=VECTOR('',#241,2.2225E1);
#243=CARTESIAN_POINT('',(9.525E0,0.E0,1.11125E1));
#244=LINE('',#243,#242);
#245=CARTESIAN_POINT('',(0.E0,0.E0,1.11125E1));
#246=DIRECTION('',(0.E0,0.E0,-1.E0));
#247=DIRECTION('',(-1.E0,0.E0,0.E0));
#248=AXIS2_PLACEMENT_3D('',#245,#246,#247);
#250=CARTESIAN_POINT('',(0.E0,0.E0,1.11125E1));
#251=DIRECTION('',(0.E0,0.E0,-1.E0));
#252=DIRECTION('',(1.E0,0.E0,0.E0));
#253=AXIS2_PLACEMENT_3D('',#250,#251,#252);
#255=CARTESIAN_POINT('',(-3.01498E1,9.525E0,1.11125E1));
#256=DIRECTION('',(0.E0,0.E0,-1.E0));
#257=DIRECTION('',(-1.E0,0.E0,0.E0));
#258=AXIS2_PLACEMENT_3D('',#255,#256,#257);
#260=CARTESIAN_POINT('',(-3.01498E1,9.525E0,1.11125E1));
#261=DIRECTION('',(0.E0,0.E0,-1.E0));
#262=DIRECTION('',(1.E0,0.E0,0.E0));
#263=AXIS2_PLACEMENT_3D('',#260,#261,#262);
#265=DIRECTION('',(0.E0,0.E0,1.E0));
#266=VECTOR('',#265,2.2225E1);
#267=CARTESIAN_POINT('',(-1.016E2,2.2225E1,-1.11125E1));
#268=LINE('',#267,#266);
#269=DIRECTION('',(0.E0,0.E0,1.E0));
#270=VECTOR('',#269,2.2225E1);
#271=CARTESIAN_POINT('',(9.525E0,2.2225E1,-1.11125E1));
#272=LINE('',#271,#270);
#273=DIRECTION('',(0.E0,0.E0,1.E0));
#274=VECTOR('',#273,1.13538E1);
#275=CARTESIAN_POINT('',(9.525E0,1.42748E1,-5.6769E0));
#276=LINE('',#275,#274);
#277=DIRECTION('',(0.E0,1.E0,0.E0));
#278=VECTOR('',#277,1.42748E1);
#279=CARTESIAN_POINT('',(9.525E0,0.E0,5.6769E0));
#280=LINE('',#279,#278);
#281=DIRECTION('',(0.E0,1.E0,0.E0));
#282=VECTOR('',#281,1.42748E1);
#283=CARTESIAN_POINT('',(9.525E0,0.E0,-5.6769E0));
#284=LINE('',#283,#282);
#285=DIRECTION('',(1.E0,0.E0,0.E0));
#286=VECTOR('',#285,2.22377E1);
#287=CARTESIAN_POINT('',(-1.27127E1,1.42748E1,-5.6769E0));
#288=LINE('',#287,#286);
#289=CARTESIAN_POINT('',(-1.27127E1,1.42748E1,0.E0));
#290=DIRECTION('',(0.E0,-1.E0,0.E0));
#291=DIRECTION('',(0.E0,0.E0,1.E0));
#292=AXIS2_PLACEMENT_3D('',#289,#290,#291);
#294=DIRECTION('',(-1.E0,0.E0,0.E0));
#295=VECTOR('',#294,2.22377E1);
#296=CARTESIAN_POINT('',(9.525E0,1.42748E1,5.6769E0));
#297=LINE('',#296,#295);
#298=DIRECTION('',(0.E0,0.E0,-1.E0));
#299=VECTOR('',#298,5.4356E0);
#300=CARTESIAN_POINT('',(-6.36905E0,0.E0,-5.6769E0));
#301=LINE('',#300,#299);
#302=DIRECTION('',(0.E0,0.E0,-1.E0));
#303=VECTOR('',#302,5.4356E0);
#304=CARTESIAN_POINT('',(-6.36905E0,0.E0,1.11125E1));
#305=LINE('',#304,#303);
#306=DIRECTION('',(0.E0,0.E0,-1.E0));
#307=VECTOR('',#306,5.4356E0);
#308=CARTESIAN_POINT('',(6.36905E0,0.E0,-5.6769E0));
#309=LINE('',#308,#307);
#310=DIRECTION('',(0.E0,0.E0,-1.E0));
#311=VECTOR('',#310,5.4356E0);
#312=CARTESIAN_POINT('',(6.36905E0,0.E0,1.11125E1));
#313=LINE('',#312,#311);
#314=DIRECTION('',(0.E0,0.E0,-1.E0));
#315=VECTOR('',#314,2.2225E1);
#316=CARTESIAN_POINT('',(-3.650615E1,9.525E0,1.11125E1));
#317=LINE('',#316,#315);
#318=DIRECTION('',(0.E0,0.E0,-1.E0));
#319=VECTOR('',#318,2.2225E1);
#320=CARTESIAN_POINT('',(-2.379345E1,9.525E0,1.11125E1));
#321=LINE('',#320,#319);
#322=CARTESIAN_POINT('',(9.525E0,2.2225E1,-1.11125E1));
#323=CARTESIAN_POINT('',(-1.016E2,2.2225E1,-1.11125E1));
#324=VERTEX_POINT('',#322);
#325=VERTEX_POINT('',#323);
#326=CARTESIAN_POINT('',(-1.016E2,-9.525E0,-1.11125E1));
#327=VERTEX_POINT('',#326);
#328=CARTESIAN_POINT('',(9.525E0,2.2225E1,1.11125E1));
#329=CARTESIAN_POINT('',(-1.016E2,2.2225E1,1.11125E1));
#330=VERTEX_POINT('',#328);
#331=VERTEX_POINT('',#329);
#332=CARTESIAN_POINT('',(-1.016E2,-9.525E0,1.11125E1));
#333=VERTEX_POINT('',#332);
#334=CARTESIAN_POINT('',(-6.36905E0,0.E0,-1.11125E1));
#335=CARTESIAN_POINT('',(6.36905E0,0.E0,-1.11125E1));
#336=VERTEX_POINT('',#334);
#337=VERTEX_POINT('',#335);
#338=CARTESIAN_POINT('',(-6.36905E0,0.E0,1.11125E1));
#339=CARTESIAN_POINT('',(6.36905E0,0.E0,1.11125E1));
#340=VERTEX_POINT('',#338);
#341=VERTEX_POINT('',#339);
#342=CARTESIAN_POINT('',(-3.650615E1,9.525E0,-1.11125E1));
#343=CARTESIAN_POINT('',(-2.379345E1,9.525E0,-1.11125E1));
#344=VERTEX_POINT('',#342);
#345=VERTEX_POINT('',#343);
#346=CARTESIAN_POINT('',(-3.650615E1,9.525E0,1.11125E1));
#347=CARTESIAN_POINT('',(-2.379345E1,9.525E0,1.11125E1));
#348=VERTEX_POINT('',#346);
#349=VERTEX_POINT('',#347);
#350=CARTESIAN_POINT('',(-1.27127E1,-9.525E0,-5.6769E0));
#351=CARTESIAN_POINT('',(0.E0,-9.525E0,-5.6769E0));
#352=VERTEX_POINT('',#350);
#353=VERTEX_POINT('',#351);
#354=CARTESIAN_POINT('',(-1.27127E1,-9.525E0,5.6769E0));
#355=CARTESIAN_POINT('',(0.E0,-9.525E0,5.6769E0));
#356=VERTEX_POINT('',#354);
#357=VERTEX_POINT('',#355);
#358=CARTESIAN_POINT('',(-6.36905E0,0.E0,-5.6769E0));
#359=CARTESIAN_POINT('',(6.36905E0,0.E0,-5.6769E0));
#360=VERTEX_POINT('',#358);
#361=VERTEX_POINT('',#359);
#362=CARTESIAN_POINT('',(-6.36905E0,0.E0,5.6769E0));
#363=CARTESIAN_POINT('',(6.36905E0,0.E0,5.6769E0));
#364=VERTEX_POINT('',#362);
#365=VERTEX_POINT('',#363);
#366=CARTESIAN_POINT('',(-1.27127E1,1.42748E1,-5.6769E0));
#367=CARTESIAN_POINT('',(9.525E0,1.42748E1,-5.6769E0));
#368=VERTEX_POINT('',#366);
#369=VERTEX_POINT('',#367);
#370=CARTESIAN_POINT('',(9.525E0,1.42748E1,5.6769E0));
#371=CARTESIAN_POINT('',(-1.27127E1,1.42748E1,5.6769E0));
#372=VERTEX_POINT('',#370);
#373=VERTEX_POINT('',#371);
#374=CARTESIAN_POINT('',(0.E0,-9.525E0,-1.11125E1));
#375=VERTEX_POINT('',#374);
#376=CARTESIAN_POINT('',(0.E0,-9.525E0,1.11125E1));
#377=VERTEX_POINT('',#376);
#378=CARTESIAN_POINT('',(9.525E0,0.E0,-1.11125E1));
#379=VERTEX_POINT('',#378);
#380=CARTESIAN_POINT('',(9.525E0,0.E0,1.11125E1));
#381=VERTEX_POINT('',#380);
#382=CARTESIAN_POINT('',(9.525E0,0.E0,5.6769E0));
#383=VERTEX_POINT('',#382);
#384=CARTESIAN_POINT('',(9.525E0,0.E0,-5.6769E0));
#385=VERTEX_POINT('',#384);
#386=CARTESIAN_POINT('',(0.E0,0.E0,-1.11125E1));
#387=DIRECTION('',(0.E0,0.E0,1.E0));
#388=DIRECTION('',(1.E0,0.E0,0.E0));
#389=AXIS2_PLACEMENT_3D('',#386,#387,#388);
#390=PLANE('',#389);
#392=ORIENTED_EDGE('',*,*,#391,.T.);
#394=ORIENTED_EDGE('',*,*,#393,.F.);
#396=ORIENTED_EDGE('',*,*,#395,.T.);
#398=ORIENTED_EDGE('',*,*,#397,.T.);
#400=ORIENTED_EDGE('',*,*,#399,.T.);
#401=EDGE_LOOP('',(#392,#394,#396,#398,#400));
#402=FACE_OUTER_BOUND('',#401,.F.);
#404=ORIENTED_EDGE('',*,*,#403,.T.);
#406=ORIENTED_EDGE('',*,*,#405,.T.);
#407=EDGE_LOOP('',(#404,#406));
#408=FACE_BOUND('',#407,.F.);
#410=ORIENTED_EDGE('',*,*,#409,.T.);
#412=ORIENTED_EDGE('',*,*,#411,.T.);
#413=EDGE_LOOP('',(#410,#412));
#414=FACE_BOUND('',#413,.F.);
#415=ADVANCED_FACE('',(#402,#408,#414),#390,.F.);
#416=CARTESIAN_POINT('',(-1.016E2,-9.525E0,-1.11125E1));
#417=DIRECTION('',(0.E0,-1.E0,0.E0));
#418=DIRECTION('',(1.E0,0.E0,0.E0));
#419=AXIS2_PLACEMENT_3D('',#416,#417,#418);
#420=PLANE('',#419);
#422=ORIENTED_EDGE('',*,*,#421,.T.);
#424=ORIENTED_EDGE('',*,*,#423,.T.);
#425=ORIENTED_EDGE('',*,*,#391,.F.);
#427=ORIENTED_EDGE('',*,*,#426,.T.);
#429=ORIENTED_EDGE('',*,*,#428,.T.);
#431=ORIENTED_EDGE('',*,*,#430,.T.);
#433=ORIENTED_EDGE('',*,*,#432,.F.);
#435=ORIENTED_EDGE('',*,*,#434,.T.);
#436=EDGE_LOOP('',(#422,#424,#425,#427,#429,#431,#433,#435));
#437=FACE_OUTER_BOUND('',#436,.F.);
#438=ADVANCED_FACE('',(#437),#420,.T.);
#439=CARTESIAN_POINT('',(-1.27127E1,-9.525E0,-5.6769E0));
#440=DIRECTION('',(0.E0,0.E0,-1.E0));
#441=DIRECTION('',(1.E0,0.E0,0.E0));
#442=AXIS2_PLACEMENT_3D('',#439,#440,#441);
#443=PLANE('',#442);
#444=ORIENTED_EDGE('',*,*,#421,.F.);
#446=ORIENTED_EDGE('',*,*,#445,.T.);
#448=ORIENTED_EDGE('',*,*,#447,.T.);
#450=ORIENTED_EDGE('',*,*,#449,.F.);
#452=ORIENTED_EDGE('',*,*,#451,.T.);
#453=EDGE_LOOP('',(#444,#446,#448,#450,#452));
#454=FACE_OUTER_BOUND('',#453,.F.);
#456=ORIENTED_EDGE('',*,*,#455,.F.);
#458=ORIENTED_EDGE('',*,*,#457,.F.);
#459=EDGE_LOOP('',(#456,#458));
#460=FACE_BOUND('',#459,.F.);
#461=ADVANCED_FACE('',(#454,#460),#443,.F.);
#462=CARTESIAN_POINT('',(-1.27127E1,-9.525E0,0.E0));
#463=DIRECTION('',(0.E0,-1.E0,0.E0));
#464=DIRECTION('',(1.E0,0.E0,0.E0));
#465=AXIS2_PLACEMENT_3D('',#462,#463,#464);
#466=CYLINDRICAL_SURFACE('',#465,5.6769E0);
#467=ORIENTED_EDGE('',*,*,#434,.F.);
#469=ORIENTED_EDGE('',*,*,#468,.T.);
#471=ORIENTED_EDGE('',*,*,#470,.T.);
#472=ORIENTED_EDGE('',*,*,#445,.F.);
#473=EDGE_LOOP('',(#467,#469,#471,#472));
#474=FACE_OUTER_BOUND('',#473,.F.);
#475=ADVANCED_FACE('',(#474),#466,.F.);
#476=CARTESIAN_POINT('',(9.525E0,-9.525E0,5.6769E0));
#477=DIRECTION('',(0.E0,0.E0,1.E0));
#478=DIRECTION('',(-1.E0,0.E0,0.E0));
#479=AXIS2_PLACEMENT_3D('',#476,#477,#478);
#480=PLANE('',#479);
#481=ORIENTED_EDGE('',*,*,#432,.T.);
#483=ORIENTED_EDGE('',*,*,#482,.F.);
#485=ORIENTED_EDGE('',*,*,#484,.T.);
#487=ORIENTED_EDGE('',*,*,#486,.T.);
#488=ORIENTED_EDGE('',*,*,#468,.F.);
#489=EDGE_LOOP('',(#481,#483,#485,#487,#488));
#490=FACE_OUTER_BOUND('',#489,.F.);
#492=ORIENTED_EDGE('',*,*,#491,.T.);
#494=ORIENTED_EDGE('',*,*,#493,.T.);
#495=EDGE_LOOP('',(#492,#494));
#496=FACE_BOUND('',#495,.F.);
#497=ADVANCED_FACE('',(#490,#496),#480,.F.);
#498=CARTESIAN_POINT('',(0.E0,0.E0,1.129665289953E1));
#499=DIRECTION('',(0.E0,0.E0,-1.E0));
#500=DIRECTION('',(1.E0,0.E0,0.E0));
#501=AXIS2_PLACEMENT_3D('',#498,#499,#500);
#502=CYLINDRICAL_SURFACE('',#501,9.525E0);
#503=ORIENTED_EDGE('',*,*,#482,.T.);
#504=ORIENTED_EDGE('',*,*,#430,.F.);
#506=ORIENTED_EDGE('',*,*,#505,.T.);
#508=ORIENTED_EDGE('',*,*,#507,.T.);
#509=EDGE_LOOP('',(#503,#504,#506,#508));
#510=FACE_OUTER_BOUND('',#509,.F.);
#511=ADVANCED_FACE('',(#510),#502,.T.);
#512=CARTESIAN_POINT('',(0.E0,0.E0,1.129665289953E1));
#513=DIRECTION('',(0.E0,0.E0,-1.E0));
#514=DIRECTION('',(1.E0,0.E0,0.E0));
#515=AXIS2_PLACEMENT_3D('',#512,#513,#514);
#516=CYLINDRICAL_SURFACE('',#515,9.525E0);
#517=ORIENTED_EDGE('',*,*,#451,.F.);
#519=ORIENTED_EDGE('',*,*,#518,.T.);
#520=ORIENTED_EDGE('',*,*,#393,.T.);
#521=ORIENTED_EDGE('',*,*,#423,.F.);
#522=EDGE_LOOP('',(#517,#519,#520,#521));
#523=FACE_OUTER_BOUND('',#522,.F.);
#524=ADVANCED_FACE('',(#523),#516,.T.);
#525=CARTESIAN_POINT('',(0.E0,0.E0,1.11125E1));
#526=DIRECTION('',(0.E0,0.E0,1.E0));
#527=DIRECTION('',(1.E0,0.E0,0.E0));
#528=AXIS2_PLACEMENT_3D('',#525,#526,#527);
#529=PLANE('',#528);
#530=ORIENTED_EDGE('',*,*,#428,.F.);
#532=ORIENTED_EDGE('',*,*,#531,.F.);
#534=ORIENTED_EDGE('',*,*,#533,.F.);
#536=ORIENTED_EDGE('',*,*,#535,.F.);
#537=ORIENTED_EDGE('',*,*,#505,.F.);
#538=EDGE_LOOP('',(#530,#532,#534,#536,#537));
#539=FACE_OUTER_BOUND('',#538,.F.);
#541=ORIENTED_EDGE('',*,*,#540,.F.);
#543=ORIENTED_EDGE('',*,*,#542,.F.);
#544=EDGE_LOOP('',(#541,#543));
#545=FACE_BOUND('',#544,.F.);
#547=ORIENTED_EDGE('',*,*,#546,.F.);
#549=ORIENTED_EDGE('',*,*,#548,.F.);
#550=EDGE_LOOP('',(#547,#549));
#551=FACE_BOUND('',#550,.F.);
#552=ADVANCED_FACE('',(#539,#545,#551),#529,.T.);
#553=CARTESIAN_POINT('',(-1.016E2,2.2225E1,-1.11125E1));
#554=DIRECTION('',(-1.E0,0.E0,0.E0));
#555=DIRECTION('',(0.E0,-1.E0,0.E0));
#556=AXIS2_PLACEMENT_3D('',#553,#554,#555);
#557=PLANE('',#556);
#558=ORIENTED_EDGE('',*,*,#399,.F.);
#560=ORIENTED_EDGE('',*,*,#559,.T.);
#561=ORIENTED_EDGE('',*,*,#531,.T.);
#562=ORIENTED_EDGE('',*,*,#426,.F.);
#563=EDGE_LOOP('',(#558,#560,#561,#562));
#564=FACE_OUTER_BOUND('',#563,.F.);
#565=ADVANCED_FACE('',(#564),#557,.T.);
#566=CARTESIAN_POINT('',(9.525E0,2.2225E1,-1.11125E1));
#567=DIRECTION('',(0.E0,1.E0,0.E0));
#568=DIRECTION('',(-1.E0,0.E0,0.E0));
#569=AXIS2_PLACEMENT_3D('',#566,#567,#568);
#570=PLANE('',#569);
#571=ORIENTED_EDGE('',*,*,#397,.F.);
#573=ORIENTED_EDGE('',*,*,#572,.T.);
#574=ORIENTED_EDGE('',*,*,#533,.T.);
#575=ORIENTED_EDGE('',*,*,#559,.F.);
#576=EDGE_LOOP('',(#571,#573,#574,#575));
#577=FACE_OUTER_BOUND('',#576,.F.);
#578=ADVANCED_FACE('',(#577),#570,.T.);
#579=CARTESIAN_POINT('',(9.525E0,-9.525E0,-1.11125E1));
#580=DIRECTION('',(1.E0,0.E0,0.E0));
#581=DIRECTION('',(0.E0,1.E0,0.E0));
#582=AXIS2_PLACEMENT_3D('',#579,#580,#581);
#583=PLANE('',#582);
#585=ORIENTED_EDGE('',*,*,#584,.T.);
#586=ORIENTED_EDGE('',*,*,#484,.F.);
#587=ORIENTED_EDGE('',*,*,#507,.F.);
#588=ORIENTED_EDGE('',*,*,#535,.T.);
#589=ORIENTED_EDGE('',*,*,#572,.F.);
#590=ORIENTED_EDGE('',*,*,#395,.F.);
#591=ORIENTED_EDGE('',*,*,#518,.F.);
#592=ORIENTED_EDGE('',*,*,#449,.T.);
#593=EDGE_LOOP('',(#585,#586,#587,#588,#589,#590,#591,#592));
#594=FACE_OUTER_BOUND('',#593,.F.);
#595=ADVANCED_FACE('',(#594),#583,.T.);
#596=CARTESIAN_POINT('',(0.E0,1.42748E1,0.E0));
#597=DIRECTION('',(0.E0,-1.E0,0.E0));
#598=DIRECTION('',(1.E0,0.E0,0.E0));
#599=AXIS2_PLACEMENT_3D('',#596,#597,#598);
#600=PLANE('',#599);
#601=ORIENTED_EDGE('',*,*,#447,.F.);
#602=ORIENTED_EDGE('',*,*,#470,.F.);
#603=ORIENTED_EDGE('',*,*,#486,.F.);
#604=ORIENTED_EDGE('',*,*,#584,.F.);
#605=EDGE_LOOP('',(#601,#602,#603,#604));
#606=FACE_OUTER_BOUND('',#605,.F.);
#607=ADVANCED_FACE('',(#606),#600,.T.);
#608=CARTESIAN_POINT('',(0.E0,0.E0,1.3335E1));
#609=DIRECTION('',(0.E0,0.E0,-1.E0));
#610=DIRECTION('',(-1.E0,0.E0,0.E0));
#611=AXIS2_PLACEMENT_3D('',#608,#609,#610);
#612=CYLINDRICAL_SURFACE('',#611,6.36905E0);
#613=ORIENTED_EDGE('',*,*,#455,.T.);
#615=ORIENTED_EDGE('',*,*,#614,.T.);
#616=ORIENTED_EDGE('',*,*,#403,.F.);
#618=ORIENTED_EDGE('',*,*,#617,.F.);
#619=EDGE_LOOP('',(#613,#615,#616,#618));
#620=FACE_OUTER_BOUND('',#619,.F.);
#621=ADVANCED_FACE('',(#620),#612,.F.);
#622=CARTESIAN_POINT('',(0.E0,0.E0,1.3335E1));
#623=DIRECTION('',(0.E0,0.E0,-1.E0));
#624=DIRECTION('',(-1.E0,0.E0,0.E0));
#625=AXIS2_PLACEMENT_3D('',#622,#623,#624);
#626=CYLINDRICAL_SURFACE('',#625,6.36905E0);
#627=ORIENTED_EDGE('',*,*,#491,.F.);
#629=ORIENTED_EDGE('',*,*,#628,.F.);
#630=ORIENTED_EDGE('',*,*,#540,.T.);
#632=ORIENTED_EDGE('',*,*,#631,.T.);
#633=EDGE_LOOP('',(#627,#629,#630,#632));
#634=FACE_OUTER_BOUND('',#633,.F.);
#635=ADVANCED_FACE('',(#634),#626,.F.);
#636=CARTESIAN_POINT('',(0.E0,0.E0,1.3335E1));
#637=DIRECTION('',(0.E0,0.E0,-1.E0));
#638=DIRECTION('',(-1.E0,0.E0,0.E0));
#639=AXIS2_PLACEMENT_3D('',#636,#637,#638);
#640=CYLINDRICAL_SURFACE('',#639,6.36905E0);
#641=ORIENTED_EDGE('',*,*,#457,.T.);
#642=ORIENTED_EDGE('',*,*,#617,.T.);
#643=ORIENTED_EDGE('',*,*,#405,.F.);
#644=ORIENTED_EDGE('',*,*,#614,.F.);
#645=EDGE_LOOP('',(#641,#642,#643,#644));
#646=FACE_OUTER_BOUND('',#645,.F.);
#647=ADVANCED_FACE('',(#646),#640,.F.);
#648=CARTESIAN_POINT('',(0.E0,0.E0,1.3335E1));
#649=DIRECTION('',(0.E0,0.E0,-1.E0));
#650=DIRECTION('',(-1.E0,0.E0,0.E0));
#651=AXIS2_PLACEMENT_3D('',#648,#649,#650);
#652=CYLINDRICAL_SURFACE('',#651,6.36905E0);
#653=ORIENTED_EDGE('',*,*,#493,.F.);
#654=ORIENTED_EDGE('',*,*,#631,.F.);
#655=ORIENTED_EDGE('',*,*,#542,.T.);
#656=ORIENTED_EDGE('',*,*,#628,.T.);
#657=EDGE_LOOP('',(#653,#654,#655,#656));
#658=FACE_OUTER_BOUND('',#657,.F.);
#659=ADVANCED_FACE('',(#658),#652,.F.);
#660=CARTESIAN_POINT('',(-3.01498E1,9.525E0,1.3335E1));
#661=DIRECTION('',(0.E0,0.E0,-1.E0));
#662=DIRECTION('',(-1.E0,0.E0,0.E0));
#663=AXIS2_PLACEMENT_3D('',#660,#661,#662);
#664=CYLINDRICAL_SURFACE('',#663,6.35635E0);
#665=ORIENTED_EDGE('',*,*,#409,.F.);
#667=ORIENTED_EDGE('',*,*,#666,.F.);
#668=ORIENTED_EDGE('',*,*,#546,.T.);
#670=ORIENTED_EDGE('',*,*,#669,.T.);
#671=EDGE_LOOP('',(#665,#667,#668,#670));
#672=FACE_OUTER_BOUND('',#671,.F.);
#673=ADVANCED_FACE('',(#672),#664,.F.);
#674=CARTESIAN_POINT('',(-3.01498E1,9.525E0,1.3335E1));
#675=DIRECTION('',(0.E0,0.E0,-1.E0));
#676=DIRECTION('',(-1.E0,0.E0,0.E0));
#677=AXIS2_PLACEMENT_3D('',#674,#675,#676);
#678=CYLINDRICAL_SURFACE('',#677,6.35635E0);
#679=ORIENTED_EDGE('',*,*,#411,.F.);
#680=ORIENTED_EDGE('',*,*,#669,.F.);
#681=ORIENTED_EDGE('',*,*,#548,.T.);
#682=ORIENTED_EDGE('',*,*,#666,.T.);
#683=EDGE_LOOP('',(#679,#680,#681,#682));
#684=FACE_OUTER_BOUND('',#683,.F.);
#685=ADVANCED_FACE('',(#684),#678,.F.);
#686=CLOSED_SHELL('',(#415,#438,#461,#475,#497,#511,#524,#552,#565,#578,#595,
#607,#621,#635,#647,#659,#673,#685));
#687=MANIFOLD_SOLID_BREP('',#686);
#688=(LENGTH_UNIT()NAMED_UNIT(*)SI_UNIT(.MILLI.,.METRE.));
#689=DIMENSIONAL_EXPONENTS(0.E0,0.E0,0.E0,0.E0,0.E0,0.E0,0.E0);
#690=(NAMED_UNIT(*)PLANE_ANGLE_UNIT()SI_UNIT($,.RADIAN.));
#691=PLANE_ANGLE_MEASURE_WITH_UNIT(PLANE_ANGLE_MEASURE(1.745329251994E-2),#690);
#692=(CONVERSION_BASED_UNIT('DEGREE',#691)NAMED_UNIT(#689)PLANE_ANGLE_UNIT());
#693=(NAMED_UNIT(*)SI_UNIT($,.STERADIAN.)SOLID_ANGLE_UNIT());
#694=UNCERTAINTY_MEASURE_WITH_UNIT(LENGTH_MEASURE(1.176846239313E-2),#688,
'distance_accuracy_value',
'Maximum model space distance between geometric entities at asserted connectivities');
#695=(GEOMETRIC_REPRESENTATION_CONTEXT(3)GLOBAL_UNCERTAINTY_ASSIGNED_CONTEXT((
#694))GLOBAL_UNIT_ASSIGNED_CONTEXT((#688,#692,#693))REPRESENTATION_CONTEXT
('ID1','3'));
#697=APPLICATION_CONTEXT('automotive_design');
#698=APPLICATION_PROTOCOL_DEFINITION('draft international standard',
'automotive_design',1998,#697);
#699=PRODUCT_DEFINITION_CONTEXT('part definition',#697,'design');
#700=PRODUCT_CONTEXT('',#697,'mechanical');
#701=PRODUCT('ILCM91602102','ILCM91602102','NOT SPECIFIED',(#700));
#702=PRODUCT_DEFINITION_FORMATION_WITH_SPECIFIED_SOURCE('','LAST_VERSION',#701,
.MADE.);
#706=PRODUCT_TYPE('part','',(#701));
#132=CIRCLE('',#131,6.36905E0);
#137=CIRCLE('',#136,6.36905E0);
#142=CIRCLE('',#141,6.35635E0);
#147=CIRCLE('',#146,6.35635E0);
#164=CIRCLE('',#163,5.6769E0);
#173=CIRCLE('',#172,9.525E0);
#178=CIRCLE('',#177,6.36905E0);
#183=CIRCLE('',#182,6.36905E0);
#192=CIRCLE('',#191,9.525E0);
#197=CIRCLE('',#196,6.36905E0);
#202=CIRCLE('',#201,6.36905E0);
#211=CIRCLE('',#210,9.525E0);
#224=CIRCLE('',#223,9.525E0);
#249=CIRCLE('',#248,6.36905E0);
#254=CIRCLE('',#253,6.36905E0);
#259=CIRCLE('',#258,6.35635E0);
#264=CIRCLE('',#263,6.35635E0);
#293=CIRCLE('',#292,5.6769E0);
#391=EDGE_CURVE('',#327,#375,#115,.T.);
#393=EDGE_CURVE('',#379,#375,#224,.T.);
#395=EDGE_CURVE('',#379,#324,#119,.T.);
#397=EDGE_CURVE('',#324,#325,#123,.T.);
#399=EDGE_CURVE('',#325,#327,#127,.T.);
#403=EDGE_CURVE('',#336,#337,#132,.T.);
#405=EDGE_CURVE('',#337,#336,#137,.T.);
#409=EDGE_CURVE('',#344,#345,#142,.T.);
#411=EDGE_CURVE('',#345,#344,#147,.T.);
#421=EDGE_CURVE('',#352,#353,#151,.T.);
#423=EDGE_CURVE('',#353,#375,#228,.T.);
#426=EDGE_CURVE('',#327,#333,#155,.T.);
#428=EDGE_CURVE('',#333,#377,#232,.T.);
#430=EDGE_CURVE('',#377,#357,#206,.T.);
#432=EDGE_CURVE('',#356,#357,#159,.T.);
#434=EDGE_CURVE('',#356,#352,#164,.T.);
#445=EDGE_CURVE('',#352,#368,#168,.T.);
#447=EDGE_CURVE('',#368,#369,#288,.T.);
#449=EDGE_CURVE('',#385,#369,#284,.T.);
#451=EDGE_CURVE('',#385,#353,#173,.T.);
#455=EDGE_CURVE('',#360,#361,#178,.T.);
#457=EDGE_CURVE('',#361,#360,#183,.T.);
#468=EDGE_CURVE('',#356,#373,#187,.T.);
#470=EDGE_CURVE('',#373,#368,#293,.T.);
#482=EDGE_CURVE('',#383,#357,#192,.T.);
#484=EDGE_CURVE('',#383,#372,#280,.T.);
#486=EDGE_CURVE('',#372,#373,#297,.T.);
#491=EDGE_CURVE('',#364,#365,#197,.T.);
#493=EDGE_CURVE('',#365,#364,#202,.T.);
#505=EDGE_CURVE('',#377,#381,#211,.T.);
#507=EDGE_CURVE('',#381,#383,#215,.T.);
#518=EDGE_CURVE('',#385,#379,#219,.T.);
#531=EDGE_CURVE('',#331,#333,#236,.T.);
#533=EDGE_CURVE('',#330,#331,#240,.T.);
#535=EDGE_CURVE('',#381,#330,#244,.T.);
#540=EDGE_CURVE('',#340,#341,#249,.T.);
#542=EDGE_CURVE('',#341,#340,#254,.T.);
#546=EDGE_CURVE('',#348,#349,#259,.T.);
#548=EDGE_CURVE('',#349,#348,#264,.T.);
#559=EDGE_CURVE('',#325,#331,#268,.T.);
#572=EDGE_CURVE('',#324,#330,#272,.T.);
#584=EDGE_CURVE('',#369,#372,#276,.T.);
#614=EDGE_CURVE('',#361,#337,#309,.T.);
#617=EDGE_CURVE('',#360,#336,#301,.T.);
#628=EDGE_CURVE('',#340,#364,#305,.T.);
#631=EDGE_CURVE('',#341,#365,#313,.T.);
#666=EDGE_CURVE('',#348,#344,#317,.T.);
#669=EDGE_CURVE('',#349,#345,#321,.T.);
#696=ADVANCED_BREP_SHAPE_REPRESENTATION('',(#687),#695);
#703=PRODUCT_DEFINITION('part definition','',#702,#699);
#704=PRODUCT_DEFINITION_SHAPE('','SHAPE FOR ILCM91602102.',#703);
#705=SHAPE_DEFINITION_REPRESENTATION(#704,#696);
ENDSEC;
END-ISO-10303-21;
